  0
SECTION
  2
HEADER
  9
$ACADVER
  1
AC1014
  9
$ACADMAINTVER
 70
     9
  9
$DWGCODEPAGE
  3
ANSI_932
  9
$INSBASE
 10
0.0
 20
0.0
 30
0.0
  9
$EXTMIN
 10
1036.795236
 20
-256.95
 30
0.0
  9
$EXTMAX
 10
1185.500009
 20
-106.0995999999999
 30
0.0
  9
$LIMMIN
 10
1029.716
 20
-270.002
  9
$LIMMAX
 10
1188.212
 20
-94.74200000000001
  9
$ORTHOMODE
 70
     0
  9
$REGENMODE
 70
     1
  9
$FILLMODE
 70
     1
  9
$QTEXTMODE
 70
     0
  9
$MIRRTEXT
 70
     1
  9
$DRAGMODE
 70
     2
  9
$LTSCALE
 40
1.0
  9
$OSMODE
 70
    37
  9
$ATTMODE
 70
     1
  9
$TEXTSIZE
 40
5.0
  9
$TRACEWID
 40
0.05
  9
$TEXTSTYLE
  7
STANDARD
  9
$CLAYER
  8
0
  9
$CELTYPE
  6
CONTINUOUS
  9
$CECOLOR
 62
   256
  9
$CELTSCALE
 40
1.0
  9
$DELOBJ
 70
     1
  9
$DISPSILH
 70
     0
  9
$DIMSCALE
 40
1.0
  9
$DIMASZ
 40
0.18
  9
$DIMEXO
 40
0.0625
  9
$DIMDLI
 40
0.38
  9
$DIMRND
 40
0.0
  9
$DIMDLE
 40
0.0
  9
$DIMEXE
 40
0.18
  9
$DIMTP
 40
0.0
  9
$DIMTM
 40
0.0
  9
$DIMTXT
 40
0.18
  9
$DIMCEN
 40
0.09
  9
$DIMTSZ
 40
0.0
  9
$DIMTOL
 70
     0
  9
$DIMLIM
 70
     0
  9
$DIMTIH
 70
     1
  9
$DIMTOH
 70
     1
  9
$DIMSE1
 70
     0
  9
$DIMSE2
 70
     0
  9
$DIMTAD
 70
     0
  9
$DIMZIN
 70
     0
  9
$DIMBLK
  1

  9
$DIMASO
 70
     1
  9
$DIMSHO
 70
     1
  9
$DIMPOST
  1

  9
$DIMAPOST
  1

  9
$DIMALT
 70
     0
  9
$DIMALTD
 70
     2
  9
$DIMALTF
 40
25.4
  9
$DIMLFAC
 40
1.0
  9
$DIMTOFL
 70
     0
  9
$DIMTVP
 40
0.0
  9
$DIMTIX
 70
     0
  9
$DIMSOXD
 70
     0
  9
$DIMSAH
 70
     0
  9
$DIMBLK1
  1

  9
$DIMBLK2
  1

  9
$DIMSTYLE
  2
STANDARD
  9
$DIMCLRD
 70
     0
  9
$DIMCLRE
 70
     0
  9
$DIMCLRT
 70
     0
  9
$DIMTFAC
 40
1.0
  9
$DIMGAP
 40
0.09
  9
$DIMJUST
 70
     0
  9
$DIMSD1
 70
     0
  9
$DIMSD2
 70
     0
  9
$DIMTOLJ
 70
     1
  9
$DIMTZIN
 70
     0
  9
$DIMALTZ
 70
     0
  9
$DIMALTTZ
 70
     0
  9
$DIMFIT
 70
     3
  9
$DIMUPT
 70
     0
  9
$DIMUNIT
 70
     2
  9
$DIMDEC
 70
     4
  9
$DIMTDEC
 70
     4
  9
$DIMALTU
 70
     2
  9
$DIMALTTD
 70
     2
  9
$DIMTXSTY
  7
STANDARD
  9
$DIMAUNIT
 70
     0
  9
$LUNITS
 70
     2
  9
$LUPREC
 70
     4
  9
$SKETCHINC
 40
0.1
  9
$FILLETRAD
 40
0.0
  9
$AUNITS
 70
     0
  9
$AUPREC
 70
     0
  9
$MENU
  1
.
  9
$ELEVATION
 40
0.0
  9
$PELEVATION
 40
0.0
  9
$THICKNESS
 40
0.0
  9
$LIMCHECK
 70
     0
  9
$BLIPMODE
 70
     0
  9
$CHAMFERA
 40
0.0
  9
$CHAMFERB
 40
0.0
  9
$CHAMFERC
 40
0.0
  9
$CHAMFERD
 40
0.0
  9
$SKPOLY
 70
     0
  9
$TDCREATE
 40
2453501.471472616
  9
$TDUPDATE
 40
2453501.472462233
  9
$TDINDWG
 40
0.0009907755
  9
$TDUSRTIMER
 40
0.0009907755
  9
$USRTIMER
 70
     1
  9
$ANGBASE
 50
0.0
  9
$ANGDIR
 70
     0
  9
$PDMODE
 70
     2
  9
$PDSIZE
 40
0.0
  9
$PLINEWID
 40
0.0
  9
$COORDS
 70
     1
  9
$SPLFRAME
 70
     0
  9
$SPLINETYPE
 70
     6
  9
$SPLINESEGS
 70
     8
  9
$ATTDIA
 70
     0
  9
$ATTREQ
 70
     1
  9
$HANDLING
 70
-16383
  9
$HANDSEED
  5
1472
  9
$SURFTAB1
 70
     6
  9
$SURFTAB2
 70
     6
  9
$SURFTYPE
 70
     6
  9
$SURFU
 70
     6
  9
$SURFV
 70
     6
  9
$UCSNAME
  2

  9
$UCSORG
 10
0.0
 20
0.0
 30
0.0
  9
$UCSXDIR
 10
1.0
 20
0.0
 30
0.0
  9
$UCSYDIR
 10
0.0
 20
1.0
 30
0.0
  9
$PUCSNAME
  2

  9
$PUCSORG
 10
0.0
 20
0.0
 30
0.0
  9
$PUCSXDIR
 10
1.0
 20
0.0
 30
0.0
  9
$PUCSYDIR
 10
0.0
 20
1.0
 30
0.0
  9
$USERI1
 70
     0
  9
$USERI2
 70
     0
  9
$USERI3
 70
     0
  9
$USERI4
 70
     0
  9
$USERI5
 70
     0
  9
$USERR1
 40
0.0
  9
$USERR2
 40
0.0
  9
$USERR3
 40
0.0
  9
$USERR4
 40
0.0
  9
$USERR5
 40
0.0
  9
$WORLDVIEW
 70
     1
  9
$SHADEDGE
 70
     3
  9
$SHADEDIF
 70
    70
  9
$TILEMODE
 70
     1
  9
$MAXACTVP
 70
    64
  9
$PINSBASE
 10
0.0
 20
0.0
 30
0.0
  9
$PLIMCHECK
 70
     0
  9
$PEXTMIN
 10
1.000000000000000E+20
 20
1.000000000000000E+20
 30
1.000000000000000E+20
  9
$PEXTMAX
 10
-1.000000000000000E+20
 20
-1.000000000000000E+20
 30
-1.000000000000000E+20
  9
$PLIMMIN
 10
0.0
 20
0.0
  9
$PLIMMAX
 10
12.0
 20
9.0
  9
$UNITMODE
 70
     0
  9
$VISRETAIN
 70
     1
  9
$PLINEGEN
 70
     0
  9
$PSLTSCALE
 70
     1
  9
$TREEDEPTH
 70
  3020
  9
$PICKSTYLE
 70
     1
  9
$CMLSTYLE
  2
STANDARD
  9
$CMLJUST
 70
     0
  9
$CMLSCALE
 40
1.0
  9
$PROXYGRAPHICS
 70
     1
  9
$MEASUREMENT
 70
     0
  0
ENDSEC
  0
SECTION
  2
CLASSES
  0
CLASS
  1
ACDBDICTIONARYWDFLT
  2
AcDbDictionaryWithDefault
  3
AutoCAD 2000
 90
        0
280
     0
281
     0
  0
CLASS
  1
ACDBPLACEHOLDER
  2
AcDbPlaceHolder
  3
AutoCAD 2000
 90
        0
280
     0
281
     0
  0
CLASS
  1
LAYOUT
  2
AcDbLayout
  3
AutoCAD 2000
 90
        0
280
     0
281
     0
  0
CLASS
  1
LONG_TRANSACTION
  2
AcDbLongTransaction
  3
AutoCAD 2000
 90
        0
280
     0
281
     0
  0
CLASS
  1
LWPOLYLINE
  2
AcDbPolyline
  3
AutoCAD 2000
 90
        0
280
     0
281
     1
  0
CLASS
  1
HATCH
  2
AcDbHatch
  3
AutoCAD 2000
 90
        0
280
     0
281
     1
  0
CLASS
  1
XRECORD
  2
AcDbXrecord
  3
AutoCAD 2000
 90
        0
280
     0
281
     0
  0
ENDSEC
  0
SECTION
  2
TABLES
  0
TABLE
  2
VPORT
  5
34
330
0
100
AcDbSymbolTable
 70
     2
  0
VPORT
  5
144D
330
34
100
AcDbSymbolTableRecord
100
AcDbViewportTableRecord
  2
*ACTIVE
 70
     0
 10
0.0
 20
0.0
 11
1.0
 21
1.0
 12
1162.384261421319
 22
-182.372
 13
0.0
 23
0.0
 14
1.0
 24
1.0
 15
0.0
 25
0.0
 16
0.0
 26
0.0
 36
1.0
 17
0.0
 27
0.0
 37
0.0
 40
175.2683292757938
 41
1.513959390862944
 42
50.0
 43
0.0
 44
0.0
 50
0.0
 51
0.0
 71
     0
 72
   100
 73
     1
 74
     3
 75
     0
 76
     0
 77
     0
 78
     0
  0
ENDTAB
  0
TABLE
  2
LTYPE
  5
1E
330
0
100
AcDbSymbolTable
 70
    10
  0
LTYPE
  5
1F
330
1E
100
AcDbSymbolTableRecord
100
AcDbLinetypeTableRecord
  2
BYBLOCK
 70
     0
  3

 72
    65
 73
     0
 40
0.0
  0
LTYPE
  5
20
330
1E
100
AcDbSymbolTableRecord
100
AcDbLinetypeTableRecord
  2
BYLAYER
 70
     0
  3

 72
    65
 73
     0
 40
0.0
  0
LTYPE
  5
21
330
1E
100
AcDbSymbolTableRecord
100
AcDbLinetypeTableRecord
  2
CONTINUOUS
 70
     0
  3
Solid line
 72
    65
 73
     0
 40
0.0
  0
LTYPE
  5
22
330
1E
100
AcDbSymbolTableRecord
100
AcDbLinetypeTableRecord
  2
DASHED
 70
     0
  3
__ __ __ __ __ __ __ __ __ __ __ __ __ __ __
 72
    65
 73
     2
 40
0.75
 49
0.5
 74
     0
 49
-0.25
 74
     0
  0
LTYPE
  5
23
330
1E
100
AcDbSymbolTableRecord
100
AcDbLinetypeTableRecord
  2
DOT
 70
     0
  3
...............................................
 72
    65
 73
     2
 40
0.25
 49
0.0
 74
     0
 49
-0.25
 74
     0
  0
LTYPE
  5
24
330
1E
100
AcDbSymbolTableRecord
100
AcDbLinetypeTableRecord
  2
DASHDOT
 70
     0
  3
__ . __ . __ . __ . __ . __ . __ . __ . __ . --
 72
    65
 73
     4
 40
1.0
 49
0.5
 74
     0
 49
-0.25
 74
     0
 49
0.0
 74
     0
 49
-0.25
 74
     0
  0
LTYPE
  5
25
330
1E
100
AcDbSymbolTableRecord
100
AcDbLinetypeTableRecord
  2
CENTER
 70
     0
  3
____ _ ____ _ ____ _ ____ _ ____ _ ____ _ ____
 72
    65
 73
     4
 40
2.0
 49
1.25
 74
     0
 49
-0.25
 74
     0
 49
0.25
 74
     0
 49
-0.25
 74
     0
  0
LTYPE
  5
26
330
1E
100
AcDbSymbolTableRecord
100
AcDbLinetypeTableRecord
  2
PHANTOM
 70
     0
  3
_____ _ _ _____ _ _ _____ _ _ _____ _ _ ____
 72
    65
 73
     6
 40
2.5
 49
1.25
 74
     0
 49
-0.25
 74
     0
 49
0.25
 74
     0
 49
-0.25
 74
     0
 49
0.25
 74
     0
 49
-0.25
 74
     0
  0
LTYPE
  5
27
330
1E
100
AcDbSymbolTableRecord
100
AcDbLinetypeTableRecord
  2
HIDDEN
 70
     0
  3
_ _ _ _ _ _ _ _ _ _ _ _ _ _ _ _ _ _ _ _ _ _ _
 72
    65
 73
     2
 40
0.375
 49
0.25
 74
     0
 49
-0.125
 74
     0
  0
LTYPE
  5
28
330
1E
100
AcDbSymbolTableRecord
100
AcDbLinetypeTableRecord
  2
BORDER
 70
     0
  3
__ __ . __ __ . __ __ . __ __ . __ __ . __ __
 72
    65
 73
     6
 40
1.75
 49
0.5
 74
     0
 49
-0.25
 74
     0
 49
0.5
 74
     0
 49
-0.25
 74
     0
 49
0.0
 74
     0
 49
-0.25
 74
     0
  0
LTYPE
  5
29
330
1E
100
AcDbSymbolTableRecord
100
AcDbLinetypeTableRecord
  2
DIVIDE
 70
     0
  3
__ . . __ . . __ . . __ . . __ . . __ . . __
 72
    65
 73
     6
 40
1.25
 49
0.5
 74
     0
 49
-0.25
 74
     0
 49
0.0
 74
     0
 49
-0.25
 74
     0
 49
0.0
 74
     0
 49
-0.25
 74
     0
  0
LTYPE
  5
2A
330
1E
100
AcDbSymbolTableRecord
100
AcDbLinetypeTableRecord
  2
DOT2
 70
     0
  3
...............................................
 72
    65
 73
     2
 40
0.125
 49
0.0
 74
     0
 49
-0.125
 74
     0
  0
ENDTAB
  0
TABLE
  2
LAYER
  5
2D
330
0
100
AcDbSymbolTable
 70
     2
  0
LAYER
  5
2E
330
2D
100
AcDbSymbolTableRecord
100
AcDbLayerTableRecord
  2
0
 70
     0
 62
     7
  6
CONTINUOUS
  0
LAYER
  5
1441
330
2D
100
AcDbSymbolTableRecord
100
AcDbLayerTableRecord
  2
1
 70
     0
 62
     7
  6
CONTINUOUS
  0
ENDTAB
  0
TABLE
  2
STYLE
  5
2B
330
0
100
AcDbSymbolTable
 70
     1
  0
STYLE
  5
2C
330
2B
100
AcDbSymbolTableRecord
100
AcDbTextStyleTableRecord
  2
STANDARD
 70
     0
 40
0.0
 41
1.0
 50
0.0
 71
     0
 42
5.0
  3
txt
  4
bigfont
  0
ENDTAB
  0
TABLE
  2
VIEW
  5
33
330
0
100
AcDbSymbolTable
 70
     0
  0
ENDTAB
  0
TABLE
  2
UCS
  5
32
330
0
100
AcDbSymbolTable
 70
     0
  0
ENDTAB
  0
TABLE
  2
APPID
  5
2F
330
0
100
AcDbSymbolTable
 70
     1
  0
APPID
  5
30
330
2F
100
AcDbSymbolTableRecord
100
AcDbRegAppTableRecord
  2
ACAD
 70
     0
  0
ENDTAB
  0
TABLE
  2
DIMSTYLE
  5
31
330
0
100
AcDbSymbolTable
 70
     1
  0
DIMSTYLE
105
1446
330
31
100
AcDbSymbolTableRecord
100
AcDbDimStyleTableRecord
  2
STANDARD
 70
     0
  3

  4

  5

  6

  7

 40
1.0
 41
0.18
 42
0.0625
 43
0.38
 44
0.18
 45
0.0
 46
0.0
 47
0.0
 48
0.0
140
0.18
141
0.09
142
0.0
143
25.4
144
1.0
145
0.0
146
1.0
147
0.09
 71
     0
 72
     0
 73
     1
 74
     1
 75
     0
 76
     0
 77
     0
 78
     0
170
     0
171
     2
172
     0
173
     0
174
     0
175
     0
176
     0
177
     0
178
     0
270
     2
271
     4
272
     4
273
     2
274
     2
340
2C
275
     0
280
     0
281
     0
282
     0
283
     1
284
     0
285
     0
286
     0
287
     3
288
     0
  0
ENDTAB
  0
TABLE
  2
BLOCK_RECORD
  5
35
330
0
100
AcDbSymbolTable
 70
     8
  0
BLOCK_RECORD
  5
36
102
{ACAD_XDICTIONARY
360
146E
102
}
330
35
100
AcDbSymbolTableRecord
100
AcDbBlockTableRecord
  2
*MODEL_SPACE
  0
BLOCK_RECORD
  5
37
102
{ACAD_XDICTIONARY
360
1470
102
}
330
35
100
AcDbSymbolTableRecord
100
AcDbBlockTableRecord
  2
*PAPER_SPACE
  0
BLOCK_RECORD
  5
38
330
35
100
AcDbSymbolTableRecord
100
AcDbBlockTableRecord
  2
OPEN
  0
BLOCK_RECORD
  5
39
330
35
100
AcDbSymbolTableRecord
100
AcDbBlockTableRecord
  2
HALF
  0
BLOCK_RECORD
  5
3A
330
35
100
AcDbSymbolTableRecord
100
AcDbBlockTableRecord
  2
CLOSEDBLANK
  0
BLOCK_RECORD
  5
3B
330
35
100
AcDbSymbolTableRecord
100
AcDbBlockTableRecord
  2
HALFCLOSE_R
  0
BLOCK_RECORD
  5
3C
330
35
100
AcDbSymbolTableRecord
100
AcDbBlockTableRecord
  2
DOT
  0
BLOCK_RECORD
  5
3D
330
35
100
AcDbSymbolTableRecord
100
AcDbBlockTableRecord
  2
HALFOPEN_R
  0
BLOCK_RECORD
  5
3E
330
35
100
AcDbSymbolTableRecord
100
AcDbBlockTableRecord
  2
CLOSEDF
  0
BLOCK_RECORD
  5
3F
330
35
100
AcDbSymbolTableRecord
100
AcDbBlockTableRecord
  2
HALF_R
  0
ENDTAB
  0
ENDSEC
  0
SECTION
  2
BLOCKS
  0
BLOCK
  5
40
330
36
100
AcDbEntity
  8
0
100
AcDbBlockBegin
  2
*MODEL_SPACE
 70
     0
 10
0.0
 20
0.0
 30
0.0
  3
*MODEL_SPACE
  1

  0
ENDBLK
  5
41
330
36
100
AcDbEntity
  8
0
100
AcDbBlockEnd
  0
BLOCK
  5
42
330
37
100
AcDbEntity
 67
     1
  8
0
100
AcDbBlockBegin
  2
*PAPER_SPACE
 70
     0
 10
0.0
 20
0.0
 30
0.0
  3
*PAPER_SPACE
  1

  0
ENDBLK
  5
43
330
37
100
AcDbEntity
 67
     1
  8
0
100
AcDbBlockEnd
  0
BLOCK
  5
44
330
38
100
AcDbEntity
  8
0
100
AcDbBlockBegin
  2
OPEN
 70
     0
 10
0.0
 20
0.0
 30
0.0
  3
OPEN
  1

  0
LINE
  5
45
330
38
100
AcDbEntity
  8
0
  6
BYBLOCK
 62
     0
100
AcDbLine
 10
0.0
 20
0.0
 30
0.0
 11
-1.0
 21
0.0
 31
0.0
  0
LINE
  5
46
330
38
100
AcDbEntity
  8
0
  6
BYBLOCK
 62
     0
100
AcDbLine
 10
-1.0
 20
-0.166667
 30
0.0
 11
0.0
 21
0.0
 31
0.0
  0
LINE
  5
47
330
38
100
AcDbEntity
  8
0
  6
BYBLOCK
 62
     0
100
AcDbLine
 10
-1.0
 20
0.166667
 30
0.0
 11
0.0
 21
0.0
 31
0.0
  0
ENDBLK
  5
48
330
38
100
AcDbEntity
  8
0
100
AcDbBlockEnd
  0
BLOCK
  5
49
330
39
100
AcDbEntity
  8
0
100
AcDbBlockBegin
  2
HALF
 70
     0
 10
0.0
 20
0.0
 30
0.0
  3
HALF
  1

  0
SOLID
  5
4A
330
39
100
AcDbEntity
  8
0
  6
BYBLOCK
 62
     0
100
AcDbTrace
 10
-1.0
 20
0.166667
 30
0.0
 11
-1.0
 21
-0.166667
 31
0.0
 12
0.0
 22
0.0
 32
0.0
 13
0.0
 23
0.0
 33
0.0
  0
ENDBLK
  5
4B
330
39
100
AcDbEntity
  8
0
100
AcDbBlockEnd
  0
BLOCK
  5
4C
330
3A
100
AcDbEntity
  8
0
100
AcDbBlockBegin
  2
CLOSEDBLANK
 70
     0
 10
0.0
 20
0.0
 30
0.0
  3
CLOSEDBLANK
  1

  0
LINE
  5
4D
330
3A
100
AcDbEntity
  8
0
  6
BYBLOCK
 62
     0
100
AcDbLine
 10
-1.0
 20
0.166667
 30
0.0
 11
-1.0
 21
-0.166667
 31
0.0
  0
LINE
  5
4E
330
3A
100
AcDbEntity
  8
0
  6
BYBLOCK
 62
     0
100
AcDbLine
 10
0.0
 20
0.0
 30
0.0
 11
-1.0
 21
-0.166667
 31
0.0
  0
LINE
  5
4F
330
3A
100
AcDbEntity
  8
0
  6
BYBLOCK
 62
     0
100
AcDbLine
 10
-1.0
 20
0.166667
 30
0.0
 11
0.0
 21
0.0
 31
0.0
  0
ENDBLK
  5
50
330
3A
100
AcDbEntity
  8
0
100
AcDbBlockEnd
  0
BLOCK
  5
51
330
3B
100
AcDbEntity
  8
0
100
AcDbBlockBegin
  2
HALFCLOSE_R
 70
     0
 10
0.0
 20
0.0
 30
0.0
  3
HALFCLOSE_R
  1

  0
LINE
  5
52
330
3B
100
AcDbEntity
  8
0
  6
BYBLOCK
 62
     0
100
AcDbLine
 10
-1.0
 20
-0.166667
 30
0.0
 11
-1.0
 21
0.0
 31
0.0
  0
LINE
  5
53
330
3B
100
AcDbEntity
  8
0
  6
BYBLOCK
 62
     0
100
AcDbLine
 10
-1.0
 20
-0.166667
 30
0.0
 11
0.0
 21
0.0
 31
0.0
  0
LINE
  5
54
330
3B
100
AcDbEntity
  8
0
  6
BYBLOCK
 62
     0
100
AcDbLine
 10
0.0
 20
0.0
 30
0.0
 11
-1.0
 21
0.0
 31
0.0
  0
ENDBLK
  5
55
330
3B
100
AcDbEntity
  8
0
100
AcDbBlockEnd
  0
BLOCK
  5
56
330
3C
100
AcDbEntity
  8
0
100
AcDbBlockBegin
  2
DOT
 70
     0
 10
0.0
 20
0.0
 30
0.0
  3
DOT
  1

  0
LINE
  5
57
330
3C
100
AcDbEntity
  8
0
  6
BYBLOCK
 62
     0
100
AcDbLine
 10
0.0
 20
0.0
 30
0.0
 11
-1.0
 21
0.0
 31
0.0
  0
LWPOLYLINE
  5
58
330
3C
100
AcDbEntity
  8
0
  6
BYBLOCK
 62
     0
100
AcDbPolyline
 90
        2
 70
     1
 43
0.166667
 10
-0.083333
 20
0.0
 42
1.0
 10
0.083333
 20
0.0
 42
1.0
  0
ENDBLK
  5
5C
330
3C
100
AcDbEntity
  8
0
100
AcDbBlockEnd
  0
BLOCK
  5
5D
330
3D
100
AcDbEntity
  8
0
100
AcDbBlockBegin
  2
HALFOPEN_R
 70
     0
 10
0.0
 20
0.0
 30
0.0
  3
HALFOPEN_R
  1

  0
LINE
  5
5E
330
3D
100
AcDbEntity
  8
0
  6
BYBLOCK
 62
     0
100
AcDbLine
 10
-1.0
 20
-0.166667
 30
0.0
 11
0.0
 21
0.0
 31
0.0
  0
LINE
  5
5F
330
3D
100
AcDbEntity
  8
0
  6
BYBLOCK
 62
     0
100
AcDbLine
 10
0.0
 20
0.0
 30
0.0
 11
-1.0
 21
0.0
 31
0.0
  0
ENDBLK
  5
60
330
3D
100
AcDbEntity
  8
0
100
AcDbBlockEnd
  0
BLOCK
  5
61
330
3E
100
AcDbEntity
  8
0
100
AcDbBlockBegin
  2
CLOSEDF
 70
     0
 10
0.0
 20
0.0
 30
0.0
  3
CLOSEDF
  1

  0
SOLID
  5
62
330
3E
100
AcDbEntity
  8
0
  6
BYBLOCK
 62
     0
100
AcDbTrace
 10
-1.0
 20
0.166667
 30
0.0
 11
-1.0
 21
-0.166667
 31
0.0
 12
0.0
 22
0.0
 32
0.0
 13
0.0
 23
0.0
 33
0.0
  0
ENDBLK
  5
63
330
3E
100
AcDbEntity
  8
0
100
AcDbBlockEnd
  0
BLOCK
  5
64
330
3F
100
AcDbEntity
  8
0
100
AcDbBlockBegin
  2
HALF_R
 70
     0
 10
0.0
 20
0.0
 30
0.0
  3
HALF_R
  1

  0
SOLID
  5
65
330
3F
100
AcDbEntity
  8
0
  6
BYBLOCK
 62
     0
100
AcDbTrace
 10
-1.0
 20
-0.166667
 30
0.0
 11
-1.0
 21
0.0
 31
0.0
 12
0.0
 22
0.0
 32
0.0
 13
0.0
 23
0.0
 33
0.0
  0
ENDBLK
  5
66
330
3F
100
AcDbEntity
  8
0
100
AcDbBlockEnd
  0
ENDSEC
  0
SECTION
  2
ENTITIES
  0
LWPOLYLINE
  5
67
330
36
100
AcDbEntity
  8
1
  6
CONTINUOUS
 62
     5
100
AcDbPolyline
 90
        4
 70
     1
 43
0.0
 10
1166.930007
 20
-127.07735
 10
1166.930007
 20
-126.009252
 10
1168.170007
 20
-126.009252
 10
1168.170007
 20
-127.07735
  0
LWPOLYLINE
  5
6D
330
36
100
AcDbEntity
  8
1
  6
CONTINUOUS
 62
     5
100
AcDbPolyline
 90
        4
 70
     1
 43
0.0
 10
1166.930007
 20
-127.07735
 10
1166.930007
 20
-126.009252
 10
1168.170007
 20
-126.009252
 10
1168.170007
 20
-127.07735
  0
LWPOLYLINE
  5
73
330
36
100
AcDbEntity
  8
1
  6
CONTINUOUS
 62
     5
100
AcDbPolyline
 90
        4
 70
     1
 43
0.0
 10
1166.930007
 20
-127.07735
 10
1166.930007
 20
-126.009252
 10
1168.170007
 20
-126.009252
 10
1168.170007
 20
-127.07735
  0
LWPOLYLINE
  5
79
330
36
100
AcDbEntity
  8
1
  6
CONTINUOUS
 62
     5
100
AcDbPolyline
 90
        6
 70
     0
 43
0.0
 10
1166.930007
 20
-126.5
 10
1166.900006999999
 20
-126.5
 10
1166.900006999999
 20
-128.4999999999999
 10
1168.200007
 20
-128.4999999999999
 10
1168.200007
 20
-126.5
 10
1168.170007
 20
-126.5
  0
LWPOLYLINE
  5
81
330
36
100
AcDbEntity
  8
1
  6
CONTINUOUS
 62
     5
100
AcDbPolyline
 90
        6
 70
     0
 43
0.0
 10
1166.930007
 20
-126.5
 10
1166.900006999999
 20
-126.5
 10
1166.900006999999
 20
-128.4999999999999
 10
1168.200007
 20
-128.4999999999999
 10
1168.200007
 20
-126.5
 10
1168.170007
 20
-126.5
  0
LWPOLYLINE
  5
89
330
36
100
AcDbEntity
  8
1
  6
CONTINUOUS
 62
     5
100
AcDbPolyline
 90
        6
 70
     0
 43
0.0
 10
1166.930007
 20
-126.5
 10
1166.900006999999
 20
-126.5
 10
1166.900006999999
 20
-128.4999999999999
 10
1168.200007
 20
-128.4999999999999
 10
1168.200007
 20
-126.5
 10
1168.170007
 20
-126.5
  0
LWPOLYLINE
  5
91
330
36
100
AcDbEntity
  8
1
  6
CONTINUOUS
 62
     5
100
AcDbPolyline
 90
        4
 70
     1
 43
0.0
 10
1166.450007
 20
-130.9499999999999
 10
1166.450007
 20
-125.95
 10
1168.650006999999
 20
-125.95
 10
1168.650006999999
 20
-130.9499999999999
  0
LWPOLYLINE
  5
97
330
36
100
AcDbEntity
  8
1
  6
CONTINUOUS
 62
     5
100
AcDbPolyline
 90
        4
 70
     1
 43
0.0
 10
1166.450007
 20
-130.9499999999999
 10
1166.450007
 20
-125.95
 10
1168.650006999999
 20
-125.95
 10
1168.650006999999
 20
-130.9499999999999
  0
LWPOLYLINE
  5
9D
330
36
100
AcDbEntity
  8
1
  6
CONTINUOUS
 62
     5
100
AcDbPolyline
 90
        4
 70
     1
 43
0.0
 10
1166.450007
 20
-130.9499999999999
 10
1166.450007
 20
-125.95
 10
1168.650006999999
 20
-125.95
 10
1168.650006999999
 20
-130.9499999999999
  0
LINE
  5
A3
330
36
100
AcDbEntity
  8
1
  6
CONTINUOUS
 62
     5
100
AcDbLine
 10
1164.050006999999
 20
-125.75
 30
0.0
 11
1171.050007
 21
-125.75
 31
0.0
  0
LINE
  5
A4
330
36
100
AcDbEntity
  8
1
  6
DOT2
 62
     5
100
AcDbLine
 10
1163.950007
 20
-131.15
 30
0.0
 11
1171.050007
 21
-131.15
 31
0.0
  0
ARC
  5
A5
330
36
100
AcDbEntity
  8
1
  6
CONTINUOUS
 62
     5
100
AcDbCircle
 10
1164.050006999999
 20
-131.15
 30
0.0
 40
0.1
100
AcDbArc
 50
179.999998
 51
-89.999999
  0
LINE
  5
A6
330
36
100
AcDbEntity
  8
1
  6
CONTINUOUS
 62
     5
100
AcDbLine
 10
1163.950007
 20
-131.15
 30
0.0
 11
1163.950007
 21
-125.8499999999999
 31
0.0
  0
ARC
  5
A7
330
36
100
AcDbEntity
  8
1
  6
CONTINUOUS
 62
     5
100
AcDbCircle
 10
1164.050006999999
 20
-125.8499999999999
 30
0.0
 40
0.1
100
AcDbArc
 50
89.999999
 51
179.999998
  0
LINE
  5
A8
330
36
100
AcDbEntity
  8
1
  6
CONTINUOUS
 62
     5
100
AcDbLine
 10
1164.050006999999
 20
-125.75
 30
0.0
 11
1170.950007
 21
-125.75
 31
0.0
  0
ARC
  5
A9
330
36
100
AcDbEntity
  8
1
  6
CONTINUOUS
 62
     5
100
AcDbCircle
 10
1170.950007
 20
-125.8499999999999
 30
0.0
 40
0.1
100
AcDbArc
 50
0.0
 51
89.999999
  0
LINE
  5
AA
330
36
100
AcDbEntity
  8
1
  6
CONTINUOUS
 62
     5
100
AcDbLine
 10
1171.050007
 20
-125.8499999999999
 30
0.0
 11
1171.050007
 21
-131.15
 31
0.0
  0
ARC
  5
AB
330
36
100
AcDbEntity
  8
1
  6
CONTINUOUS
 62
     5
100
AcDbCircle
 10
1170.950007
 20
-131.15
 30
0.0
 40
0.1
100
AcDbArc
 50
-89.999999
 51
0.0
  0
LINE
  5
AC
330
36
100
AcDbEntity
  8
1
  6
CONTINUOUS
 62
     5
100
AcDbLine
 10
1170.950007
 20
-131.25
 30
0.0
 11
1164.050006999999
 21
-131.25
 31
0.0
  0
LWPOLYLINE
  5
AD
330
36
100
AcDbEntity
  8
1
  6
CONTINUOUS
 62
     5
100
AcDbPolyline
 90
        4
 70
     1
 43
0.0
 10
1124.000008
 20
-123.3999999999999
 10
1124.000008
 20
-121.5999999999999
 10
1123.050007999999
 20
-121.5999999999999
 10
1123.050007999999
 20
-123.3999999999999
  0
ARC
  5
B3
330
36
100
AcDbEntity
  8
1
  6
CONTINUOUS
 62
     5
100
AcDbCircle
 10
1174.399998
 20
-115.1
 30
0.0
 40
0.1
100
AcDbArc
 50
0.0
 51
89.999999
  0
LWPOLYLINE
  5
B4
330
36
100
AcDbEntity
  8
1
  6
CONTINUOUS
 62
     5
100
AcDbPolyline
 90
        4
 70
     0
 43
0.0
 10
1174.499998
 20
-115.1
 10
1174.499998
 20
-120.1
 10
1124.049998
 20
-120.1
 10
1124.049998
 20
-116.0
  0
ARC
  5
BA
330
36
100
AcDbEntity
  8
1
  6
CONTINUOUS
 62
     5
100
AcDbCircle
 10
1125.049997999999
 20
-116.0
 30
0.0
 40
1.0
100
AcDbArc
 50
89.999999
 51
179.999998
  0
LINE
  5
BB
330
36
100
AcDbEntity
  8
1
  6
CONTINUOUS
 62
     5
100
AcDbLine
 10
1125.049997999999
 20
-115.0
 30
0.0
 11
1174.399998
 21
-115.0
 31
0.0
  0
LINE
  5
BC
330
36
100
AcDbEntity
  8
1
  6
DOT2
 62
     5
100
AcDbLine
 10
1169.999997
 20
-164.5
 30
0.0
 11
1168.467810999999
 21
-164.5
 31
0.0
  0
LINE
  5
BD
330
36
100
AcDbEntity
  8
1
  6
DOT2
 62
     5
100
AcDbLine
 10
1170.099997
 20
-160.4999999999999
 30
0.0
 11
1170.099997
 21
-165.5
 31
0.0
  0
LINE
  5
BE
330
36
100
AcDbEntity
  8
1
  6
DOT2
 62
     5
100
AcDbLine
 10
1152.099997
 20
-160.4999999999999
 30
0.0
 11
1152.099997
 21
-165.5
 31
0.0
  0
LINE
  5
BF
330
36
100
AcDbEntity
  8
1
  6
DOT2
 62
     5
100
AcDbLine
 10
1131.170008
 20
-159.0
 30
0.0
 11
1135.424508
 21
-159.0
 31
0.0
  0
LWPOLYLINE
  5
C0
330
36
100
AcDbEntity
  8
1
  6
CONTINUOUS
 62
     5
100
AcDbPolyline
 90
        4
 70
     1
 43
0.0
 10
1139.249998
 20
-160.0
 10
1132.749998
 20
-160.0
 10
1132.749998
 20
-157.0
 10
1139.249998
 20
-157.0
  0
LWPOLYLINE
  5
C6
330
36
100
AcDbEntity
  8
1
  6
CONTINUOUS
 62
     5
100
AcDbPolyline
 90
        4
 70
     1
 43
0.0
 10
1132.749998
 20
-160.0
 10
1139.249998
 20
-160.0
 10
1139.249998
 20
-157.0
 10
1132.749998
 20
-157.0
  0
LWPOLYLINE
  5
CC
330
36
100
AcDbEntity
  8
1
  6
CONTINUOUS
 62
     5
100
AcDbPolyline
 90
        6
 70
     1
 43
0.0
 10
1131.099998
 20
-157.0
 10
1130.999998
 20
-156.9
 10
1130.999998
 20
-156.4999999999999
 10
1140.999998
 20
-156.4999999999999
 10
1140.999998
 20
-156.9
 10
1140.899998
 20
-157.0
  0
LINE
  5
D4
330
36
100
AcDbEntity
  8
1
  6
CONTINUOUS
 62
     5
100
AcDbLine
 10
1130.999998
 20
-156.9
 30
0.0
 11
1140.999998
 21
-156.9
 31
0.0
  0
LINE
  5
D5
330
36
100
AcDbEntity
  8
1
  6
CONTINUOUS
 62
     5
100
AcDbLine
 10
1140.999998
 20
-156.9
 30
0.0
 11
1130.999998
 21
-156.9
 31
0.0
  0
ARC
  5
D6
330
36
100
AcDbEntity
  8
1
  6
DASHED
 62
     5
100
AcDbCircle
 10
1122.496229
 20
-153.184508
 30
0.0
 40
0.2
100
AcDbArc
 50
-91.99999899999999
 51
-14.38139399999999
  0
LINE
  5
D7
330
36
100
AcDbEntity
  8
1
  6
DASHED
 62
     5
100
AcDbLine
 10
1122.689961999999
 20
-153.234183
 30
0.0
 11
1122.711463999999
 21
-153.150325
 31
0.0
  0
ARC
  5
D8
330
36
100
AcDbEntity
  8
1
  6
DASHED
 62
     5
100
AcDbCircle
 10
1122.905196
 20
-153.2
 30
0.0
 40
0.2
100
AcDbArc
 50
89.999999
 51
165.618604
  0
LINE
  5
D9
330
36
100
AcDbEntity
  8
1
  6
DASHED
 62
     5
100
AcDbLine
 10
1122.905196
 20
-153.0
 30
0.0
 11
1123.050007999999
 21
-153.0
 31
0.0
  0
LINE
  5
DA
330
36
100
AcDbEntity
  8
1
  6
DASHED
 62
     5
100
AcDbLine
 10
1123.050007999999
 20
-152.0
 30
0.0
 11
1122.905196
 21
-152.0
 31
0.0
  0
ARC
  5
DB
330
36
100
AcDbEntity
  8
1
  6
DASHED
 62
     5
100
AcDbCircle
 10
1122.905196
 20
-151.8
 30
0.0
 40
0.2
100
AcDbArc
 50
-165.618604
 51
-89.999999
  0
LINE
  5
DC
330
36
100
AcDbEntity
  8
1
  6
DASHED
 62
     5
100
AcDbLine
 10
1122.711463999999
 20
-151.8496749999999
 30
0.0
 11
1122.689961999999
 21
-151.7658169999999
 31
0.0
  0
ARC
  5
DD
330
36
100
AcDbEntity
  8
1
  6
DASHED
 62
     5
100
AcDbCircle
 10
1122.496229
 20
-151.815492
 30
0.0
 40
0.2
100
AcDbArc
 50
14.38139399999999
 51
91.99999899999999
  0
LINE
  5
DE
330
36
100
AcDbEntity
  8
1
  6
DASHED
 62
     5
100
AcDbLine
 10
1122.489249
 20
-151.6156139999999
 30
0.0
 11
1120.743029
 21
-151.676593
 31
0.0
  0
ARC
  5
DF
330
36
100
AcDbEntity
  8
1
  6
DASHED
 62
     5
100
AcDbCircle
 10
1120.750008
 20
-151.876471
 30
0.0
 40
0.2
100
AcDbArc
 50
91.99999899999999
 51
179.999998
  0
LINE
  5
E0
330
36
100
AcDbEntity
  8
1
  6
DASHED
 62
     5
100
AcDbLine
 10
1120.550008
 20
-151.876471
 30
0.0
 11
1120.550008
 21
-153.1235289999999
 31
0.0
  0
ARC
  5
E1
330
36
100
AcDbEntity
  8
1
  6
DASHED
 62
     5
100
AcDbCircle
 10
1120.750008
 20
-153.1235289999999
 30
0.0
 40
0.2
100
AcDbArc
 50
179.999998
 51
-91.99999899999999
  0
LINE
  5
E2
330
36
100
AcDbEntity
  8
1
  6
DASHED
 62
     5
100
AcDbLine
 10
1120.743029
 20
-153.3234069999999
 30
0.0
 11
1122.489249
 21
-153.384386
 31
0.0
  0
LWPOLYLINE
  5
E3
330
36
100
AcDbEntity
  8
1
  6
CONTINUOUS
 62
     5
100
AcDbPolyline
 90
        4
 70
     1
 43
0.0
 10
1124.000008
 20
-153.3999999999999
 10
1124.000008
 20
-151.6
 10
1123.050007999999
 20
-151.6
 10
1123.050007999999
 20
-153.3999999999999
  0
LINE
  5
E9
330
36
100
AcDbEntity
  8
1
  6
CONTINUOUS
 62
     5
100
AcDbLine
 10
1134.399998
 20
-161.3
 30
0.0
 11
1137.599998
 21
-161.3
 31
0.0
  0
LINE
  5
EA
330
36
100
AcDbEntity
  8
1
  6
CONTINUOUS
 62
     5
100
AcDbLine
 10
1137.599998
 20
-161.3
 30
0.0
 11
1134.399998
 21
-161.3
 31
0.0
  0
LWPOLYLINE
  5
EB
330
36
100
AcDbEntity
  8
1
  6
CONTINUOUS
 62
     5
100
AcDbPolyline
 90
        6
 70
     1
 43
0.0
 10
1137.399998
 20
-161.5
 10
1137.599998
 20
-161.3
 10
1137.599998
 20
-161.0
 10
1134.399998
 20
-161.0
 10
1134.399998
 20
-161.3
 10
1134.599998
 20
-161.5
  0
LWPOLYLINE
  5
F3
330
36
100
AcDbEntity
  8
1
  6
CONTINUOUS
 62
     5
100
AcDbPolyline
 90
        6
 70
     1
 43
0.0
 10
1134.599998
 20
-161.5
 10
1134.399998
 20
-161.3
 10
1134.399998
 20
-161.0
 10
1137.599998
 20
-161.0
 10
1137.599998
 20
-161.3
 10
1137.399998
 20
-161.5
  0
LWPOLYLINE
  5
FB
330
36
100
AcDbEntity
  8
1
  6
DIVIDE
 62
     5
100
AcDbPolyline
 90
       12
 70
     0
 43
0.0
 10
1132.749998
 20
-166.861521
 10
1132.749998
 20
-170.6999999999999
 10
1133.049997999999
 20
-171.0
 10
1134.399998
 20
-171.0
 10
1134.399998
 20
-171.3
 10
1134.599998
 20
-171.5
 10
1137.399998
 20
-171.5
 10
1137.599998
 20
-171.3
 10
1137.599998
 20
-171.0
 10
1138.949997999999
 20
-171.0
 10
1139.249998
 20
-170.6999999999999
 10
1139.249998
 20
-166.639271
  0
LINE
  5
10B
330
36
100
AcDbEntity
  8
1
  6
DOT2
 62
     5
100
AcDbLine
 10
1147.999998
 20
-160.587679
 30
0.0
 11
1147.999998
 21
-165.506224
 31
0.0
  0
LWPOLYLINE
  5
10C
330
36
100
AcDbEntity
  8
1
  6
CONTINUOUS
 62
     5
100
AcDbPolyline
 90
        6
 70
     1
 43
0.0
 10
1139.249998
 20
-160.7
 10
1139.249998
 20
-160.0
 10
1132.749998
 20
-160.0
 10
1132.749998
 20
-160.7
 10
1133.049997999999
 20
-161.0
 10
1138.949997999999
 20
-161.0
  0
LWPOLYLINE
  5
114
330
36
100
AcDbEntity
  8
1
  6
CONTINUOUS
 62
     5
100
AcDbPolyline
 90
        6
 70
     1
 43
0.0
 10
1132.749998
 20
-160.7
 10
1132.749998
 20
-160.0
 10
1139.249998
 20
-160.0
 10
1139.249998
 20
-160.7
 10
1138.949997999999
 20
-161.0
 10
1133.049997999999
 20
-161.0
  0
LINE
  5
11C
330
36
100
AcDbEntity
  8
1
  6
CONTINUOUS
 62
     5
100
AcDbLine
 10
1139.249998
 20
-160.7
 30
0.0
 11
1132.749998
 21
-160.7
 31
0.0
  0
LINE
  5
11D
330
36
100
AcDbEntity
  8
1
  6
DOT2
 62
     5
100
AcDbLine
 10
1135.999997999999
 20
-151.634504
 30
0.0
 11
1135.999997999999
 21
-177.2042689999999
 31
0.0
  0
LWPOLYLINE
  5
11E
330
36
100
AcDbEntity
  8
1
  6
CONTINUOUS
 62
     5
100
AcDbPolyline
 90
        4
 70
     0
 43
0.0
 10
1145.999997
 20
-158.0
 10
1145.999997
 20
-164.5
 10
1173.999999
 20
-164.5
 10
1173.999997
 20
-158.0
  0
LINE
  5
124
330
36
100
AcDbEntity
  8
1
  6
CONTINUOUS
 62
     5
100
AcDbLine
 10
1173.999997999999
 20
-161.5
 30
0.0
 11
1145.999997
 21
-161.5
 31
0.0
  0
LINE
  5
125
330
36
100
AcDbEntity
  8
1
  6
CONTINUOUS
 62
     5
100
AcDbLine
 10
1173.999997999999
 20
-161.5
 30
0.0
 11
1145.999997
 21
-161.5
 31
0.0
  0
LINE
  5
126
330
36
100
AcDbEntity
  8
1
  6
DOT2
 62
     5
100
AcDbLine
 10
1135.999997999999
 20
-161.3913379999999
 30
0.0
 11
1135.999997999999
 21
-113.0
 31
0.0
  0
ARC
  5
127
330
36
100
AcDbEntity
  8
1
  6
CONTINUOUS
 62
     5
100
AcDbCircle
 10
1141.650006999999
 20
-156.4
 30
0.0
 40
0.1
100
AcDbArc
 50
-89.999999
 51
0.0
  0
LINE
  5
128
330
36
100
AcDbEntity
  8
1
  6
CONTINUOUS
 62
     5
100
AcDbLine
 10
1141.750007
 20
-156.4
 30
0.0
 11
1141.750007
 21
-148.5999999999999
 31
0.0
  0
ARC
  5
129
330
36
100
AcDbEntity
  8
1
  6
CONTINUOUS
 62
     5
100
AcDbCircle
 10
1141.850007
 20
-148.5999999999999
 30
0.0
 40
0.1
100
AcDbArc
 50
89.999999
 51
179.999998
  0
LINE
  5
12A
330
36
100
AcDbEntity
  8
1
  6
CONTINUOUS
 62
     5
100
AcDbLine
 10
1141.850007
 20
-148.5
 30
0.0
 11
1143.150007
 21
-148.5
 31
0.0
  0
ARC
  5
12B
330
36
100
AcDbEntity
  8
1
  6
CONTINUOUS
 62
     5
100
AcDbCircle
 10
1143.150007
 20
-148.3999999999999
 30
0.0
 40
0.1
100
AcDbArc
 50
-89.999999
 51
0.0
  0
LINE
  5
12C
330
36
100
AcDbEntity
  8
1
  6
CONTINUOUS
 62
     5
100
AcDbLine
 10
1143.250007
 20
-148.3999999999999
 30
0.0
 11
1143.250007
 21
-125.8
 31
0.0
  0
ARC
  5
12D
330
36
100
AcDbEntity
  8
1
  6
CONTINUOUS
 62
     5
100
AcDbCircle
 10
1143.150007
 20
-125.8
 30
0.0
 40
0.1
100
AcDbArc
 50
0.0
 51
89.999999
  0
LINE
  5
12E
330
36
100
AcDbEntity
  8
1
  6
CONTINUOUS
 62
     5
100
AcDbLine
 10
1143.150007
 20
-125.7
 30
0.0
 11
1141.850007
 21
-125.7
 31
0.0
  0
ARC
  5
12F
330
36
100
AcDbEntity
  8
1
  6
CONTINUOUS
 62
     5
100
AcDbCircle
 10
1141.850007
 20
-125.6
 30
0.0
 40
0.1
100
AcDbArc
 50
179.999998
 51
-89.999999
  0
LWPOLYLINE
  5
130
330
36
100
AcDbEntity
  8
1
  6
CONTINUOUS
 62
     5
100
AcDbPolyline
 90
        6
 70
     0
 43
0.0
 10
1141.750007
 20
-125.6
 10
1141.750007
 20
-120.1
 10
1124.000007
 20
-120.1
 10
1124.000007
 20
-154.4999999999999
 10
1126.000007
 20
-156.4999999999999
 10
1141.650006999999
 20
-156.4999999999999
  0
ARC
  5
138
330
36
100
AcDbEntity
  8
1
  6
CONTINUOUS
 62
     5
100
AcDbCircle
 10
1174.399997
 20
-157.9
 30
0.0
 40
0.1
100
AcDbArc
 50
-89.999999
 51
0.0
  0
LWPOLYLINE
  5
139
330
36
100
AcDbEntity
  8
1
  6
CONTINUOUS
 62
     5
100
AcDbPolyline
 90
        4
 70
     0
 43
0.0
 10
1174.499997
 20
-157.9
 10
1174.500007
 20
-120.1
 10
1141.800007
 20
-120.1
 10
1141.800007
 20
-125.55
  0
ARC
  5
13F
330
36
100
AcDbEntity
  8
1
  6
CONTINUOUS
 62
     5
100
AcDbCircle
 10
1141.900007
 20
-125.55
 30
0.0
 40
0.1
100
AcDbArc
 50
179.999998
 51
-89.999999
  0
LINE
  5
140
330
36
100
AcDbEntity
  8
1
  6
CONTINUOUS
 62
     5
100
AcDbLine
 10
1141.900007
 20
-125.65
 30
0.0
 11
1143.200007
 21
-125.65
 31
0.0
  0
ARC
  5
141
330
36
100
AcDbEntity
  8
1
  6
CONTINUOUS
 62
     5
100
AcDbCircle
 10
1143.200007
 20
-125.75
 30
0.0
 40
0.1
100
AcDbArc
 50
0.0
 51
89.999999
  0
LINE
  5
142
330
36
100
AcDbEntity
  8
1
  6
CONTINUOUS
 62
     5
100
AcDbLine
 10
1143.300007
 20
-125.75
 30
0.0
 11
1143.300007
 21
-148.4499999999999
 31
0.0
  0
ARC
  5
143
330
36
100
AcDbEntity
  8
1
  6
CONTINUOUS
 62
     5
100
AcDbCircle
 10
1143.200007
 20
-148.4499999999999
 30
0.0
 40
0.1
100
AcDbArc
 50
-89.999999
 51
0.0
  0
LINE
  5
144
330
36
100
AcDbEntity
  8
1
  6
CONTINUOUS
 62
     5
100
AcDbLine
 10
1143.200007
 20
-148.55
 30
0.0
 11
1141.900007
 21
-148.55
 31
0.0
  0
ARC
  5
145
330
36
100
AcDbEntity
  8
1
  6
CONTINUOUS
 62
     5
100
AcDbCircle
 10
1141.900007
 20
-148.65
 30
0.0
 40
0.1
100
AcDbArc
 50
89.999999
 51
179.999998
  0
LWPOLYLINE
  5
146
330
36
100
AcDbEntity
  8
1
  6
CONTINUOUS
 62
     5
100
AcDbPolyline
 90
        4
 70
     0
 43
0.0
 10
1141.800007
 20
-148.65
 10
1141.800007
 20
-156.4999999999999
 10
1143.300007
 20
-158.0
 10
1174.399997
 20
-158.0
  0
LINE
  5
14C
330
36
100
AcDbEntity
  8
1
  6
CONTINUOUS
 62
     5
100
AcDbLine
 10
1075.786606
 20
-125.965002
 30
0.0
 11
1076.31611
 21
-125.435498
 31
0.0
  0
LWPOLYLINE
  5
14D
330
36
100
AcDbEntity
  8
1
  6
CONTINUOUS
 62
     5
100
AcDbPolyline
 90
        4
 70
     1
 43
0.0
 10
1074.799998
 20
-121.5999999999999
 10
1077.199997999999
 20
-121.5999999999999
 10
1077.199997999999
 20
-123.3999999999999
 10
1074.799998
 20
-123.3999999999999
  0
LWPOLYLINE
  5
153
330
36
100
AcDbEntity
  8
1
  6
CONTINUOUS
 62
     5
100
AcDbPolyline
 90
        4
 70
     1
 43
0.0
 10
1071.836606
 20
-136.550002
 10
1073.136606
 20
-136.550002
 10
1073.136606
 20
-135.450002
 10
1071.836606
 20
-135.450002
  0
LWPOLYLINE
  5
159
330
36
100
AcDbEntity
  8
1
  6
CONTINUOUS
 62
     5
100
AcDbPolyline
 90
        4
 70
     1
 43
0.0
 10
1070.336606
 20
-136.550002
 10
1071.636605999999
 20
-136.550002
 10
1071.636605999999
 20
-135.450002
 10
1070.336606
 20
-135.450002
  0
CIRCLE
  5
15F
330
36
100
AcDbEntity
  8
1
  6
CONTINUOUS
 62
     5
100
AcDbCircle
 10
1073.986606
 20
-137.0000019999999
 30
0.0
 40
0.15
  0
CIRCLE
  5
160
330
36
100
AcDbEntity
  8
1
  6
CONTINUOUS
 62
     5
100
AcDbCircle
 10
1072.486606
 20
-137.0000019999999
 30
0.0
 40
0.15
  0
CIRCLE
  5
161
330
36
100
AcDbEntity
  8
1
  6
CONTINUOUS
 62
     5
100
AcDbCircle
 10
1070.986606
 20
-137.0000019999999
 30
0.0
 40
0.15
  0
LWPOLYLINE
  5
162
330
36
100
AcDbEntity
  8
1
  6
CONTINUOUS
 62
     5
100
AcDbPolyline
 90
        4
 70
     1
 43
0.0
 10
1073.336606
 20
-136.550002
 10
1074.636606
 20
-136.550002
 10
1074.636606
 20
-135.450002
 10
1073.336606
 20
-135.450002
  0
LWPOLYLINE
  5
168
330
36
100
AcDbEntity
  8
1
  6
CONTINUOUS
 62
     5
100
AcDbPolyline
 90
        4
 70
     1
 43
0.0
 10
1064.799998
 20
-121.5999999999999
 10
1067.199998
 20
-121.5999999999999
 10
1067.199998
 20
-123.3999999999999
 10
1064.799998
 20
-123.3999999999999
  0
LINE
  5
16E
330
36
100
AcDbEntity
  8
1
  6
CONTINUOUS
 62
     5
100
AcDbLine
 10
1066.186606
 20
-133.215002
 30
0.0
 11
1065.692733
 21
-133.708875
 31
0.0
  0
LWPOLYLINE
  5
16F
330
36
100
AcDbEntity
  8
1
  6
CONTINUOUS
 62
     5
100
AcDbPolyline
 90
        4
 70
     1
 43
0.0
 10
1067.336606
 20
-136.550002
 10
1068.636606
 20
-136.550002
 10
1068.636606
 20
-135.450002
 10
1067.336606
 20
-135.450002
  0
CIRCLE
  5
175
330
36
100
AcDbEntity
  8
1
  6
CONTINUOUS
 62
     5
100
AcDbCircle
 10
1067.986606
 20
-137.0000019999999
 30
0.0
 40
0.15
  0
LWPOLYLINE
  5
176
330
36
100
AcDbEntity
  8
1
  6
CONTINUOUS
 62
     5
100
AcDbPolyline
 90
        4
 70
     1
 43
0.0
 10
1068.836606
 20
-136.550002
 10
1070.136605999999
 20
-136.550002
 10
1070.136605999999
 20
-135.450002
 10
1068.836606
 20
-135.450002
  0
CIRCLE
  5
17C
330
36
100
AcDbEntity
  8
1
  6
CONTINUOUS
 62
     5
100
AcDbCircle
 10
1069.486606
 20
-137.0000019999999
 30
0.0
 40
0.15
  0
ARC
  5
17D
330
36
100
AcDbEntity
  8
1
  6
CONTINUOUS
 62
     5
100
AcDbCircle
 10
1062.024998
 20
-116.0
 30
0.0
 40
1.0
100
AcDbArc
 50
89.999999
 51
179.999998
  0
LWPOLYLINE
  5
17E
330
36
100
AcDbEntity
  8
1
  6
CONTINUOUS
 62
     5
100
AcDbPolyline
 90
        4
 70
     0
 43
0.0
 10
1061.024998
 20
-116.0
 10
1061.024998
 20
-120.1
 10
1080.974998
 20
-120.1
 10
1080.974998
 20
-116.0
  0
ARC
  5
184
330
36
100
AcDbEntity
  8
1
  6
CONTINUOUS
 62
     5
100
AcDbCircle
 10
1079.974998
 20
-116.0
 30
0.0
 40
1.0
100
AcDbArc
 50
0.0
 51
89.999999
  0
LINE
  5
185
330
36
100
AcDbEntity
  8
1
  6
CONTINUOUS
 62
     5
100
AcDbLine
 10
1079.974998
 20
-115.0
 30
0.0
 11
1062.024998
 21
-115.0
 31
0.0
  0
LINE
  5
186
330
36
100
AcDbEntity
  8
1
  6
CONTINUOUS
 62
     5
100
AcDbLine
 10
1063.986606
 20
-135.2500019999999
 30
0.0
 11
1077.986606
 21
-135.2500019999999
 31
0.0
  0
ARC
  5
187
330
36
100
AcDbEntity
  8
1
  6
CONTINUOUS
 62
     5
100
AcDbCircle
 10
1067.486606
 20
-137.2500019999999
 30
0.0
 40
0.5
100
AcDbArc
 50
89.999999
 51
179.999998
  0
LINE
  5
188
330
36
100
AcDbEntity
  8
1
  6
CONTINUOUS
 62
     5
100
AcDbLine
 10
1067.486606
 20
-136.750002
 30
0.0
 11
1074.486606
 21
-136.750002
 31
0.0
  0
ARC
  5
189
330
36
100
AcDbEntity
  8
1
  6
CONTINUOUS
 62
     5
100
AcDbCircle
 10
1074.486606
 20
-137.2500019999999
 30
0.0
 40
0.5
100
AcDbArc
 50
0.0
 51
89.999999
  0
LWPOLYLINE
  5
18A
330
36
100
AcDbEntity
  8
1
  6
CONTINUOUS
 62
     5
100
AcDbPolyline
 90
        3
 70
     0
 43
0.0
 10
1074.986606
 20
-137.2500019999999
 10
1074.986606
 20
-137.2500019999999
 10
1077.986606
 20
-137.2500019999999
  0
LWPOLYLINE
  5
18F
330
36
100
AcDbEntity
  8
1
  6
CONTINUOUS
 62
     5
100
AcDbPolyline
 90
        3
 70
     0
 43
0.0
 10
1063.986606
 20
-137.2500019999999
 10
1066.986606
 20
-137.2500019999999
 10
1066.986606
 20
-137.2500019999999
  0
LWPOLYLINE
  5
194
330
36
100
AcDbEntity
  8
1
  6
CONTINUOUS
 62
     5
100
AcDbPolyline
 90
        4
 70
     1
 43
0.0
 10
1066.186606
 20
-133.215002
 10
1075.786606
 20
-133.215002
 10
1075.786606
 20
-125.965002
 10
1066.186606
 20
-125.965002
  0
ARC
  5
19A
330
36
100
AcDbEntity
  8
1
  6
CONTINUOUS
 62
     5
100
AcDbCircle
 10
1075.836605999999
 20
-125.915002
 30
0.0
 40
0.3
100
AcDbArc
 50
0.0
 51
89.999999
  0
LINE
  5
19B
330
36
100
AcDbEntity
  8
1
  6
CONTINUOUS
 62
     5
100
AcDbLine
 10
1075.836605999999
 20
-125.6150019999999
 30
0.0
 11
1066.136606
 21
-125.6150019999999
 31
0.0
  0
ARC
  5
19C
330
36
100
AcDbEntity
  8
1
  6
CONTINUOUS
 62
     5
100
AcDbCircle
 10
1066.136606
 20
-125.915002
 30
0.0
 40
0.3
100
AcDbArc
 50
89.999999
 51
179.999998
  0
LINE
  5
19D
330
36
100
AcDbEntity
  8
1
  6
CONTINUOUS
 62
     5
100
AcDbLine
 10
1065.836606
 20
-125.915002
 30
0.0
 11
1065.836606
 21
-133.265002
 31
0.0
  0
ARC
  5
19E
330
36
100
AcDbEntity
  8
1
  6
CONTINUOUS
 62
     5
100
AcDbCircle
 10
1066.136606
 20
-133.265002
 30
0.0
 40
0.3
100
AcDbArc
 50
179.999998
 51
-89.999999
  0
LINE
  5
19F
330
36
100
AcDbEntity
  8
1
  6
CONTINUOUS
 62
     5
100
AcDbLine
 10
1066.136606
 20
-133.5650019999999
 30
0.0
 11
1075.836605999999
 21
-133.5650019999999
 31
0.0
  0
ARC
  5
1A0
330
36
100
AcDbEntity
  8
1
  6
CONTINUOUS
 62
     5
100
AcDbCircle
 10
1075.836605999999
 20
-133.265002
 30
0.0
 40
0.3
100
AcDbArc
 50
-89.999999
 51
0.0
  0
LINE
  5
1A1
330
36
100
AcDbEntity
  8
1
  6
CONTINUOUS
 62
     5
100
AcDbLine
 10
1076.136606
 20
-133.265002
 30
0.0
 11
1076.136606
 21
-125.915002
 31
0.0
  0
ARC
  5
1A2
330
36
100
AcDbEntity
  8
1
  6
CONTINUOUS
 62
     5
100
AcDbCircle
 10
1066.114951
 20
-125.965002
 30
0.0
 40
0.7
100
AcDbArc
 50
89.999999
 51
158.2746939999999
  0
ARC
  5
1A3
330
36
100
AcDbEntity
  8
1
  6
CONTINUOUS
 62
     5
100
AcDbCircle
 10
1074.986606
 20
-129.500002
 30
0.0
 40
10.25
100
AcDbArc
 50
158.2746939999999
 51
-157.107382
  0
ARC
  5
1A4
330
36
100
AcDbEntity
  8
1
  6
CONTINUOUS
 62
     5
100
AcDbCircle
 10
1066.188807
 20
-133.215002
 30
0.0
 40
0.7
100
AcDbArc
 50
-157.107382
 51
-89.999999
  0
LINE
  5
1A5
330
36
100
AcDbEntity
  8
1
  6
CONTINUOUS
 62
     5
100
AcDbLine
 10
1066.188807
 20
-133.915002
 30
0.0
 11
1075.784406
 21
-133.915002
 31
0.0
  0
ARC
  5
1A6
330
36
100
AcDbEntity
  8
1
  6
CONTINUOUS
 62
     5
100
AcDbCircle
 10
1075.784406
 20
-133.215002
 30
0.0
 40
0.7
100
AcDbArc
 50
-89.999999
 51
-22.892616
  0
ARC
  5
1A7
330
36
100
AcDbEntity
  8
1
  6
CONTINUOUS
 62
     5
100
AcDbCircle
 10
1066.986606
 20
-129.500002
 30
0.0
 40
10.25
100
AcDbArc
 50
-22.892616
 51
21.725304
  0
ARC
  5
1A8
330
36
100
AcDbEntity
  8
1
  6
CONTINUOUS
 62
     5
100
AcDbCircle
 10
1075.858262
 20
-125.965002
 30
0.0
 40
0.7
100
AcDbArc
 50
21.725304
 51
89.999999
  0
LINE
  5
1A9
330
36
100
AcDbEntity
  8
1
  6
CONTINUOUS
 62
     5
100
AcDbLine
 10
1075.858262
 20
-125.2650019999999
 30
0.0
 11
1066.114951
 21
-125.2650019999999
 31
0.0
  0
LWPOLYLINE
  5
1AA
330
36
100
AcDbEntity
  8
1
  6
CONTINUOUS
 62
     5
100
AcDbPolyline
 90
        4
 70
     1
 43
0.0
 10
1071.836606
 20
-140.2500019999999
 10
1073.136606
 20
-140.2500019999999
 10
1073.136606
 20
-139.150002
 10
1071.836606
 20
-139.150002
  0
LWPOLYLINE
  5
1B0
330
36
100
AcDbEntity
  8
1
  6
CONTINUOUS
 62
     5
100
AcDbPolyline
 90
        4
 70
     1
 43
0.0
 10
1070.336606
 20
-140.2500019999999
 10
1071.636605999999
 20
-140.2500019999999
 10
1071.636605999999
 20
-139.150002
 10
1070.336606
 20
-139.150002
  0
LWPOLYLINE
  5
1B6
330
36
100
AcDbEntity
  8
1
  6
CONTINUOUS
 62
     5
100
AcDbPolyline
 90
        4
 70
     1
 43
0.0
 10
1071.836606
 20
-141.450002
 10
1073.136606
 20
-141.450002
 10
1073.136606
 20
-140.3500019999999
 10
1071.836606
 20
-140.3500019999999
  0
LWPOLYLINE
  5
1BC
330
36
100
AcDbEntity
  8
1
  6
CONTINUOUS
 62
     5
100
AcDbPolyline
 90
        4
 70
     1
 43
0.0
 10
1070.336606
 20
-141.450002
 10
1071.636605999999
 20
-141.450002
 10
1071.636605999999
 20
-140.3500019999999
 10
1070.336606
 20
-140.3500019999999
  0
LWPOLYLINE
  5
1C2
330
36
100
AcDbEntity
  8
1
  6
CONTINUOUS
 62
     5
100
AcDbPolyline
 90
        4
 70
     1
 43
0.0
 10
1071.836606
 20
-145.0500019999999
 10
1073.136606
 20
-145.0500019999999
 10
1073.136606
 20
-143.950002
 10
1071.836606
 20
-143.950002
  0
LWPOLYLINE
  5
1C8
330
36
100
AcDbEntity
  8
1
  6
CONTINUOUS
 62
     5
100
AcDbPolyline
 90
      255
 70
     1
 43
0.0
 10
1070.336803999999
 20
-144.5135529999999
 10
1070.336606
 20
-144.5000019999999
 10
1070.336803999999
 20
-144.4864509999999
 10
1070.337394999999
 20
-144.472909
 10
1070.338381
 20
-144.459383
 10
1070.339761
 20
-144.445882
 10
1070.341533
 20
-144.432413
 10
1070.343696999999
 20
-144.418986
 10
1070.346250999999
 20
-144.405608
 10
1070.349194
 20
-144.392287
 10
1070.352523
 20
-144.3790309999999
 10
1070.356238
 20
-144.3658489999999
 10
1070.360336
 20
-144.3527489999999
 10
1070.364813
 20
-144.3397379999999
 10
1070.369668999999
 20
-144.3268239999999
 10
1070.374898
 20
-144.3140149999999
 10
1070.380499
 20
-144.301319
 10
1070.386467999999
 20
-144.2887439999999
 10
1070.392801999999
 20
-144.2762969999999
 10
1070.399496
 20
-144.263986
 10
1070.406546
 20
-144.2518179999999
 10
1070.413948
 20
-144.2398009999999
 10
1070.421698
 20
-144.2279409999999
 10
1070.429791
 20
-144.216247
 10
1070.438223
 20
-144.2047249999999
 10
1070.446986999999
 20
-144.193383
 10
1070.456078
 20
-144.182226
 10
1070.465492
 20
-144.1712629999999
 10
1070.475222
 20
-144.1604989999999
 10
1070.485263
 20
-144.1499409999999
 10
1070.495607
 20
-144.1395959999999
 10
1070.506249999999
 20
-144.129469
 10
1070.517184999999
 20
-144.1195679999999
 10
1070.528405
 20
-144.1098969999999
 10
1070.539901999999
 20
-144.1004639999999
 10
1070.551671
 20
-144.091272
 10
1070.563704
 20
-144.082329
 10
1070.575994
 20
-144.0736399999999
 10
1070.588533
 20
-144.065209
 10
1070.601313999999
 20
-144.057042
 10
1070.614328
 20
-144.0491449999999
 10
1070.627569
 20
-144.0415209999999
 10
1070.641028
 20
-144.0341749999999
 10
1070.654696
 20
-144.027112
 10
1070.668566
 20
-144.020336
 10
1070.682628999999
 20
-144.013852
 10
1070.696876
 20
-144.007662
 10
1070.711299999999
 20
-144.0017719999999
 10
1070.72589
 20
-143.996184
 10
1070.740639
 20
-143.990901
 10
1070.755536999999
 20
-143.985928
 10
1070.770575999999
 20
-143.981267
 10
1070.785745
 20
-143.976921
 10
1070.801037
 20
-143.972892
 10
1070.816441
 20
-143.969184
 10
1070.831948
 20
-143.965797
 10
1070.84755
 20
-143.962735
 10
1070.863235999999
 20
-143.96
 10
1070.878996
 20
-143.957592
 10
1070.894822
 20
-143.955513
 10
1070.910703999999
 20
-143.953765
 10
1070.926631999999
 20
-143.952348
 10
1070.942596
 20
-143.9512639999999
 10
1070.958586999999
 20
-143.950513
 10
1070.974594999999
 20
-143.9500959999999
 10
1070.99061
 20
-143.950012
 10
1071.006623
 20
-143.9502629999999
 10
1071.022624
 20
-143.9508469999999
 10
1071.038602
 20
-143.9517649999999
 10
1071.05455
 20
-143.9530149999999
 10
1071.070456
 20
-143.954597
 10
1071.086310999999
 20
-143.956511
 10
1071.102105
 20
-143.9587549999999
 10
1071.11783
 20
-143.961327
 10
1071.133475
 20
-143.964226
 10
1071.14903
 20
-143.96745
 10
1071.164487
 20
-143.970998
 10
1071.179836
 20
-143.9748669999999
 10
1071.195067999999
 20
-143.9790539999999
 10
1071.210172999999
 20
-143.983558
 10
1071.225142
 20
-143.9883759999999
 10
1071.239967
 20
-143.9935039999999
 10
1071.254638
 20
-143.9989399999999
 10
1071.269146
 20
-144.004679
 10
1071.283482
 20
-144.0107199999999
 10
1071.297639
 20
-144.017057
 10
1071.311606
 20
-144.023688
 10
1071.325376
 20
-144.030608
 10
1071.338941
 20
-144.037813
 10
1071.352292
 20
-144.045298
 10
1071.36542
 20
-144.05306
 10
1071.378318999999
 20
-144.061093
 10
1071.39098
 20
-144.069392
 10
1071.403394999999
 20
-144.077953
 10
1071.415557
 20
-144.086769
 10
1071.427459
 20
-144.095837
 10
1071.439093
 20
-144.10515
 10
1071.450452999999
 20
-144.1147029999999
 10
1071.461531
 20
-144.1244899999999
 10
1071.472319999999
 20
-144.134505
 10
1071.482815
 20
-144.1447419999999
 10
1071.493009
 20
-144.1551939999999
 10
1071.502894999999
 20
-144.165856
 10
1071.512467
 20
-144.1767199999999
 10
1071.521721
 20
-144.187781
 10
1071.530649
 20
-144.199031
 10
1071.539247
 20
-144.2104639999999
 10
1071.54751
 20
-144.222073
 10
1071.555432
 20
-144.2338509999999
 10
1071.563008999999
 20
-144.2457899999999
 10
1071.570236
 20
-144.257883
 10
1071.577109
 20
-144.270124
 10
1071.583623
 20
-144.282504
 10
1071.589774
 20
-144.295016
 10
1071.59556
 20
-144.3076519999999
 10
1071.600976
 20
-144.320406
 10
1071.606019
 20
-144.333268
 10
1071.610685
 20
-144.346232
 10
1071.614972999999
 20
-144.3592879999999
 10
1071.618879999999
 20
-144.372431
 10
1071.622402
 20
-144.3856509999999
 10
1071.625539
 20
-144.3989399999999
 10
1071.628287
 20
-144.4122899999999
 10
1071.630646999999
 20
-144.425694
 10
1071.632615
 20
-144.439143
 10
1071.634191
 20
-144.4526289999999
 10
1071.635373
 20
-144.4661429999999
 10
1071.636162
 20
-144.479679
 10
1071.636557
 20
-144.4932259999999
 10
1071.636557
 20
-144.506778
 10
1071.636162
 20
-144.520325
 10
1071.635373
 20
-144.53386
 10
1071.634191
 20
-144.5473749999999
 10
1071.632615
 20
-144.560861
 10
1071.630646999999
 20
-144.57431
 10
1071.628287
 20
-144.5877139999999
 10
1071.625539
 20
-144.6010639999999
 10
1071.622402
 20
-144.614353
 10
1071.618879999999
 20
-144.6275729999999
 10
1071.614972999999
 20
-144.6407159999999
 10
1071.610685
 20
-144.653772
 10
1071.606019
 20
-144.666736
 10
1071.600976
 20
-144.679598
 10
1071.59556
 20
-144.692352
 10
1071.589774
 20
-144.7049879999999
 10
1071.583623
 20
-144.7175
 10
1071.577109
 20
-144.72988
 10
1071.570236
 20
-144.7421209999999
 10
1071.563008999999
 20
-144.7542139999999
 10
1071.555432
 20
-144.7661529999999
 10
1071.54751
 20
-144.777931
 10
1071.539247
 20
-144.7895399999999
 10
1071.530649
 20
-144.800973
 10
1071.521721
 20
-144.8122229999999
 10
1071.512467
 20
-144.823284
 10
1071.502894999999
 20
-144.834148
 10
1071.493009
 20
-144.84481
 10
1071.482815
 20
-144.855262
 10
1071.472319999999
 20
-144.865499
 10
1071.461531
 20
-144.8755139999999
 10
1071.450452999999
 20
-144.885301
 10
1071.439093
 20
-144.894854
 10
1071.427459
 20
-144.9041669999999
 10
1071.415557
 20
-144.913235
 10
1071.403394999999
 20
-144.922051
 10
1071.39098
 20
-144.930612
 10
1071.378318999999
 20
-144.938911
 10
1071.36542
 20
-144.946944
 10
1071.352292
 20
-144.954706
 10
1071.338941
 20
-144.9621909999999
 10
1071.325376
 20
-144.9693959999999
 10
1071.311606
 20
-144.976316
 10
1071.297639
 20
-144.982947
 10
1071.283482
 20
-144.9892839999999
 10
1071.269146
 20
-144.995325
 10
1071.254638
 20
-145.0010639999999
 10
1071.239967
 20
-145.0064999999999
 10
1071.225142
 20
-145.011628
 10
1071.210172999999
 20
-145.016446
 10
1071.195067999999
 20
-145.0209499999999
 10
1071.179836
 20
-145.0251369999999
 10
1071.164487
 20
-145.029006
 10
1071.14903
 20
-145.032554
 10
1071.133475
 20
-145.035778
 10
1071.11783
 20
-145.038677
 10
1071.102105
 20
-145.0412489999999
 10
1071.086310999999
 20
-145.0434929999999
 10
1071.070456
 20
-145.045407
 10
1071.05455
 20
-145.0469889999999
 10
1071.038602
 20
-145.0482389999999
 10
1071.022624
 20
-145.049157
 10
1071.006623
 20
-145.0497409999999
 10
1070.99061
 20
-145.049992
 10
1070.974594999999
 20
-145.049908
 10
1070.958586999999
 20
-145.0494909999999
 10
1070.942596
 20
-145.0487399999999
 10
1070.926631999999
 20
-145.047656
 10
1070.910703999999
 20
-145.046239
 10
1070.894822
 20
-145.0444909999999
 10
1070.878996
 20
-145.042412
 10
1070.863235999999
 20
-145.040004
 10
1070.84755
 20
-145.0372689999999
 10
1070.831948
 20
-145.034207
 10
1070.816441
 20
-145.03082
 10
1070.801037
 20
-145.027112
 10
1070.785745
 20
-145.023083
 10
1070.770575999999
 20
-145.018737
 10
1070.755536999999
 20
-145.0140759999999
 10
1070.740639
 20
-145.009103
 10
1070.72589
 20
-145.0038199999999
 10
1070.711299999999
 20
-144.9982319999999
 10
1070.696876
 20
-144.9923419999999
 10
1070.682628999999
 20
-144.9861519999999
 10
1070.668566
 20
-144.979668
 10
1070.654696
 20
-144.972892
 10
1070.641028
 20
-144.965829
 10
1070.627569
 20
-144.958483
 10
1070.614328
 20
-144.950859
 10
1070.601313999999
 20
-144.9429609999999
 10
1070.588533
 20
-144.934795
 10
1070.575994
 20
-144.9263639999999
 10
1070.563704
 20
-144.917675
 10
1070.551671
 20
-144.908732
 10
1070.539901999999
 20
-144.89954
 10
1070.528405
 20
-144.8901069999999
 10
1070.517184999999
 20
-144.880436
 10
1070.506249999999
 20
-144.870535
 10
1070.495607
 20
-144.860408
 10
1070.485263
 20
-144.8500629999999
 10
1070.475222
 20
-144.839505
 10
1070.465492
 20
-144.8287409999999
 10
1070.456078
 20
-144.8177779999999
 10
1070.446986999999
 20
-144.806621
 10
1070.438223
 20
-144.7952789999999
 10
1070.429791
 20
-144.783757
 10
1070.421698
 20
-144.772063
 10
1070.413948
 20
-144.7602029999999
 10
1070.406546
 20
-144.748186
 10
1070.399496
 20
-144.7360179999999
 10
1070.392801999999
 20
-144.723707
 10
1070.386467999999
 20
-144.71126
 10
1070.380499
 20
-144.698685
 10
1070.374898
 20
-144.6859889999999
 10
1070.369668999999
 20
-144.67318
 10
1070.364813
 20
-144.6602659999999
 10
1070.360336
 20
-144.647255
 10
1070.356238
 20
-144.6341549999999
 10
1070.352523
 20
-144.6209719999999
 10
1070.349194
 20
-144.6077169999999
 10
1070.346250999999
 20
-144.5943959999999
 10
1070.343696999999
 20
-144.581018
 10
1070.341533
 20
-144.567591
 10
1070.339761
 20
-144.554122
 10
1070.338381
 20
-144.5406209999999
 10
1070.337394999999
 20
-144.527095
  0
LWPOLYLINE
  5
2C9
330
36
100
AcDbEntity
  8
1
  6
CONTINUOUS
 62
     5
100
AcDbPolyline
 90
        4
 70
     1
 43
0.0
 10
1071.836606
 20
-143.850002
 10
1073.136606
 20
-143.850002
 10
1073.136606
 20
-142.7500019999999
 10
1071.836606
 20
-142.7500019999999
  0
LWPOLYLINE
  5
2CF
330
36
100
AcDbEntity
  8
1
  6
CONTINUOUS
 62
     5
100
AcDbPolyline
 90
      255
 70
     1
 43
0.0
 10
1070.336803999999
 20
-143.313553
 10
1070.336606
 20
-143.300002
 10
1070.336803999999
 20
-143.2864509999999
 10
1070.337394999999
 20
-143.272909
 10
1070.338381
 20
-143.259383
 10
1070.339761
 20
-143.2458819999999
 10
1070.341533
 20
-143.2324129999999
 10
1070.343696999999
 20
-143.218986
 10
1070.346250999999
 20
-143.205608
 10
1070.349194
 20
-143.192287
 10
1070.352523
 20
-143.179031
 10
1070.356238
 20
-143.165849
 10
1070.360336
 20
-143.152749
 10
1070.364813
 20
-143.1397379999999
 10
1070.369668999999
 20
-143.126824
 10
1070.374898
 20
-143.114015
 10
1070.380499
 20
-143.1013189999999
 10
1070.386467999999
 20
-143.088744
 10
1070.392801999999
 20
-143.076297
 10
1070.399496
 20
-143.063986
 10
1070.406546
 20
-143.0518179999999
 10
1070.413948
 20
-143.039801
 10
1070.421698
 20
-143.0279409999999
 10
1070.429791
 20
-143.0162469999999
 10
1070.438223
 20
-143.004725
 10
1070.446986999999
 20
-142.9933829999999
 10
1070.456078
 20
-142.9822259999999
 10
1070.465492
 20
-142.971263
 10
1070.475222
 20
-142.960499
 10
1070.485263
 20
-142.949941
 10
1070.495607
 20
-142.9395959999999
 10
1070.506249999999
 20
-142.9294689999999
 10
1070.517184999999
 20
-142.919568
 10
1070.528405
 20
-142.909897
 10
1070.539901999999
 20
-142.900464
 10
1070.551671
 20
-142.8912719999999
 10
1070.563704
 20
-142.8823289999999
 10
1070.575994
 20
-142.87364
 10
1070.588533
 20
-142.865209
 10
1070.601313999999
 20
-142.8570419999999
 10
1070.614328
 20
-142.8491449999999
 10
1070.627569
 20
-142.841521
 10
1070.641028
 20
-142.8341749999999
 10
1070.654696
 20
-142.8271119999999
 10
1070.668566
 20
-142.8203359999999
 10
1070.682628999999
 20
-142.813852
 10
1070.696876
 20
-142.807662
 10
1070.711299999999
 20
-142.8017719999999
 10
1070.72589
 20
-142.796184
 10
1070.740639
 20
-142.790901
 10
1070.755536999999
 20
-142.785928
 10
1070.770575999999
 20
-142.7812669999999
 10
1070.785745
 20
-142.7769209999999
 10
1070.801037
 20
-142.7728919999999
 10
1070.816441
 20
-142.769184
 10
1070.831948
 20
-142.765797
 10
1070.84755
 20
-142.762735
 10
1070.863235999999
 20
-142.7599999999999
 10
1070.878996
 20
-142.7575919999999
 10
1070.894822
 20
-142.7555129999999
 10
1070.910703999999
 20
-142.7537649999999
 10
1070.926631999999
 20
-142.752348
 10
1070.942596
 20
-142.7512639999999
 10
1070.958586999999
 20
-142.7505129999999
 10
1070.974594999999
 20
-142.7500959999999
 10
1070.99061
 20
-142.7500119999999
 10
1071.006623
 20
-142.750263
 10
1071.022624
 20
-142.750847
 10
1071.038602
 20
-142.7517649999999
 10
1071.05455
 20
-142.753015
 10
1071.070456
 20
-142.7545969999999
 10
1071.086310999999
 20
-142.756511
 10
1071.102105
 20
-142.758755
 10
1071.11783
 20
-142.7613269999999
 10
1071.133475
 20
-142.764226
 10
1071.14903
 20
-142.76745
 10
1071.164487
 20
-142.7709979999999
 10
1071.179836
 20
-142.7748669999999
 10
1071.195067999999
 20
-142.7790539999999
 10
1071.210172999999
 20
-142.7835579999999
 10
1071.225142
 20
-142.788376
 10
1071.239967
 20
-142.793504
 10
1071.254638
 20
-142.7989399999999
 10
1071.269146
 20
-142.8046789999999
 10
1071.283482
 20
-142.81072
 10
1071.297639
 20
-142.8170569999999
 10
1071.311606
 20
-142.8236879999999
 10
1071.325376
 20
-142.830608
 10
1071.338941
 20
-142.8378129999999
 10
1071.352292
 20
-142.8452979999999
 10
1071.36542
 20
-142.85306
 10
1071.378318999999
 20
-142.8610929999999
 10
1071.39098
 20
-142.869392
 10
1071.403394999999
 20
-142.8779529999999
 10
1071.415557
 20
-142.8867689999999
 10
1071.427459
 20
-142.8958369999999
 10
1071.439093
 20
-142.9051499999999
 10
1071.450452999999
 20
-142.914703
 10
1071.461531
 20
-142.92449
 10
1071.472319999999
 20
-142.934505
 10
1071.482815
 20
-142.9447419999999
 10
1071.493009
 20
-142.955194
 10
1071.502894999999
 20
-142.965856
 10
1071.512467
 20
-142.97672
 10
1071.521721
 20
-142.987781
 10
1071.530649
 20
-142.9990309999999
 10
1071.539247
 20
-143.0104639999999
 10
1071.54751
 20
-143.022073
 10
1071.555432
 20
-143.033851
 10
1071.563008999999
 20
-143.0457899999999
 10
1071.570236
 20
-143.0578829999999
 10
1071.577109
 20
-143.0701239999999
 10
1071.583623
 20
-143.082504
 10
1071.589774
 20
-143.0950159999999
 10
1071.59556
 20
-143.1076519999999
 10
1071.600976
 20
-143.1204059999999
 10
1071.606019
 20
-143.1332679999999
 10
1071.610685
 20
-143.146232
 10
1071.614972999999
 20
-143.1592879999999
 10
1071.618879999999
 20
-143.172431
 10
1071.622402
 20
-143.185651
 10
1071.625539
 20
-143.1989399999999
 10
1071.628287
 20
-143.2122899999999
 10
1071.630646999999
 20
-143.225694
 10
1071.632615
 20
-143.2391429999999
 10
1071.634191
 20
-143.252629
 10
1071.635373
 20
-143.266143
 10
1071.636162
 20
-143.279679
 10
1071.636557
 20
-143.293226
 10
1071.636557
 20
-143.306778
 10
1071.636162
 20
-143.320325
 10
1071.635373
 20
-143.33386
 10
1071.634191
 20
-143.347375
 10
1071.632615
 20
-143.360861
 10
1071.630646999999
 20
-143.37431
 10
1071.628287
 20
-143.3877139999999
 10
1071.625539
 20
-143.4010639999999
 10
1071.622402
 20
-143.414353
 10
1071.618879999999
 20
-143.4275729999999
 10
1071.614972999999
 20
-143.4407159999999
 10
1071.610685
 20
-143.4537719999999
 10
1071.606019
 20
-143.4667359999999
 10
1071.600976
 20
-143.479598
 10
1071.59556
 20
-143.492352
 10
1071.589774
 20
-143.504988
 10
1071.583623
 20
-143.5175
 10
1071.577109
 20
-143.5298799999999
 10
1071.570236
 20
-143.542121
 10
1071.563008999999
 20
-143.554214
 10
1071.555432
 20
-143.566153
 10
1071.54751
 20
-143.577931
 10
1071.539247
 20
-143.5895399999999
 10
1071.530649
 20
-143.600973
 10
1071.521721
 20
-143.612223
 10
1071.512467
 20
-143.623284
 10
1071.502894999999
 20
-143.634148
 10
1071.493009
 20
-143.6448099999999
 10
1071.482815
 20
-143.655262
 10
1071.472319999999
 20
-143.665499
 10
1071.461531
 20
-143.6755139999999
 10
1071.450452999999
 20
-143.685301
 10
1071.439093
 20
-143.6948539999999
 10
1071.427459
 20
-143.7041669999999
 10
1071.415557
 20
-143.7132349999999
 10
1071.403394999999
 20
-143.7220509999999
 10
1071.39098
 20
-143.730612
 10
1071.378318999999
 20
-143.7389109999999
 10
1071.36542
 20
-143.7469439999999
 10
1071.352292
 20
-143.7547059999999
 10
1071.338941
 20
-143.762191
 10
1071.325376
 20
-143.769396
 10
1071.311606
 20
-143.7763159999999
 10
1071.297639
 20
-143.782947
 10
1071.283482
 20
-143.789284
 10
1071.269146
 20
-143.7953249999999
 10
1071.254638
 20
-143.8010639999999
 10
1071.239967
 20
-143.8064999999999
 10
1071.225142
 20
-143.811628
 10
1071.210172999999
 20
-143.8164459999999
 10
1071.195067999999
 20
-143.82095
 10
1071.179836
 20
-143.825137
 10
1071.164487
 20
-143.8290059999999
 10
1071.14903
 20
-143.832554
 10
1071.133475
 20
-143.835778
 10
1071.11783
 20
-143.8386769999999
 10
1071.102105
 20
-143.841249
 10
1071.086310999999
 20
-143.8434929999999
 10
1071.070456
 20
-143.8454069999999
 10
1071.05455
 20
-143.8469889999999
 10
1071.038602
 20
-143.8482389999999
 10
1071.022624
 20
-143.849157
 10
1071.006623
 20
-143.8497409999999
 10
1070.99061
 20
-143.8499919999999
 10
1070.974594999999
 20
-143.8499079999999
 10
1070.958586999999
 20
-143.849491
 10
1070.942596
 20
-143.8487399999999
 10
1070.926631999999
 20
-143.8476559999999
 10
1070.910703999999
 20
-143.8462389999999
 10
1070.894822
 20
-143.844491
 10
1070.878996
 20
-143.842412
 10
1070.863235999999
 20
-143.8400039999999
 10
1070.84755
 20
-143.837269
 10
1070.831948
 20
-143.834207
 10
1070.816441
 20
-143.8308199999999
 10
1070.801037
 20
-143.827112
 10
1070.785745
 20
-143.823083
 10
1070.770575999999
 20
-143.818737
 10
1070.755536999999
 20
-143.814076
 10
1070.740639
 20
-143.809103
 10
1070.72589
 20
-143.80382
 10
1070.711299999999
 20
-143.798232
 10
1070.696876
 20
-143.7923419999999
 10
1070.682628999999
 20
-143.786152
 10
1070.668566
 20
-143.7796679999999
 10
1070.654696
 20
-143.7728919999999
 10
1070.641028
 20
-143.7658289999999
 10
1070.627569
 20
-143.758483
 10
1070.614328
 20
-143.750859
 10
1070.601313999999
 20
-143.742961
 10
1070.588533
 20
-143.7347949999999
 10
1070.575994
 20
-143.7263639999999
 10
1070.563704
 20
-143.717675
 10
1070.551671
 20
-143.708732
 10
1070.539901999999
 20
-143.6995399999999
 10
1070.528405
 20
-143.690107
 10
1070.517184999999
 20
-143.680436
 10
1070.506249999999
 20
-143.6705349999999
 10
1070.495607
 20
-143.660408
 10
1070.485263
 20
-143.6500629999999
 10
1070.475222
 20
-143.639505
 10
1070.465492
 20
-143.628741
 10
1070.456078
 20
-143.617778
 10
1070.446986999999
 20
-143.6066209999999
 10
1070.438223
 20
-143.5952789999999
 10
1070.429791
 20
-143.583757
 10
1070.421698
 20
-143.5720629999999
 10
1070.413948
 20
-143.560203
 10
1070.406546
 20
-143.548186
 10
1070.399496
 20
-143.5360179999999
 10
1070.392801999999
 20
-143.523707
 10
1070.386467999999
 20
-143.51126
 10
1070.380499
 20
-143.498685
 10
1070.374898
 20
-143.485989
 10
1070.369668999999
 20
-143.47318
 10
1070.364813
 20
-143.4602659999999
 10
1070.360336
 20
-143.447255
 10
1070.356238
 20
-143.434155
 10
1070.352523
 20
-143.420972
 10
1070.349194
 20
-143.4077169999999
 10
1070.346250999999
 20
-143.394396
 10
1070.343696999999
 20
-143.3810179999999
 10
1070.341533
 20
-143.367591
 10
1070.339761
 20
-143.3541219999999
 10
1070.338381
 20
-143.340621
 10
1070.337394999999
 20
-143.3270949999999
  0
LWPOLYLINE
  5
3D0
330
36
100
AcDbEntity
  8
1
  6
CONTINUOUS
 62
     5
100
AcDbPolyline
 90
        4
 70
     1
 43
0.0
 10
1071.836606
 20
-146.250002
 10
1073.136606
 20
-146.250002
 10
1073.136606
 20
-145.150002
 10
1071.836606
 20
-145.150002
  0
LWPOLYLINE
  5
3D6
330
36
100
AcDbEntity
  8
1
  6
CONTINUOUS
 62
     5
100
AcDbPolyline
 90
        4
 70
     1
 43
0.0
 10
1071.836606
 20
-147.450002
 10
1073.136606
 20
-147.450002
 10
1073.136606
 20
-146.3500019999999
 10
1071.836606
 20
-146.3500019999999
  0
LWPOLYLINE
  5
3DC
330
36
100
AcDbEntity
  8
1
  6
CONTINUOUS
 62
     5
100
AcDbPolyline
 90
        4
 70
     1
 43
0.0
 10
1070.336606
 20
-147.450002
 10
1071.636605999999
 20
-147.450002
 10
1071.636605999999
 20
-146.3500019999999
 10
1070.336606
 20
-146.3500019999999
  0
LWPOLYLINE
  5
3E2
330
36
100
AcDbEntity
  8
1
  6
CONTINUOUS
 62
     5
100
AcDbPolyline
 90
      255
 70
     1
 43
0.0
 10
1070.336803999999
 20
-145.7135529999999
 10
1070.336606
 20
-145.700002
 10
1070.336803999999
 20
-145.686451
 10
1070.337394999999
 20
-145.672909
 10
1070.338381
 20
-145.659383
 10
1070.339761
 20
-145.6458819999999
 10
1070.341533
 20
-145.6324129999999
 10
1070.343696999999
 20
-145.618986
 10
1070.346250999999
 20
-145.605608
 10
1070.349194
 20
-145.592287
 10
1070.352523
 20
-145.579031
 10
1070.356238
 20
-145.5658489999999
 10
1070.360336
 20
-145.552749
 10
1070.364813
 20
-145.5397379999999
 10
1070.369668999999
 20
-145.526824
 10
1070.374898
 20
-145.514015
 10
1070.380499
 20
-145.501319
 10
1070.386467999999
 20
-145.488744
 10
1070.392801999999
 20
-145.4762969999999
 10
1070.399496
 20
-145.463986
 10
1070.406546
 20
-145.4518179999999
 10
1070.413948
 20
-145.439801
 10
1070.421698
 20
-145.427941
 10
1070.429791
 20
-145.4162469999999
 10
1070.438223
 20
-145.404725
 10
1070.446986999999
 20
-145.3933829999999
 10
1070.456078
 20
-145.382226
 10
1070.465492
 20
-145.371263
 10
1070.475222
 20
-145.360499
 10
1070.485263
 20
-145.349941
 10
1070.495607
 20
-145.3395959999999
 10
1070.506249999999
 20
-145.3294689999999
 10
1070.517184999999
 20
-145.319568
 10
1070.528405
 20
-145.309897
 10
1070.539901999999
 20
-145.3004639999999
 10
1070.551671
 20
-145.291272
 10
1070.563704
 20
-145.2823289999999
 10
1070.575994
 20
-145.27364
 10
1070.588533
 20
-145.2652089999999
 10
1070.601313999999
 20
-145.2570419999999
 10
1070.614328
 20
-145.2491449999999
 10
1070.627569
 20
-145.241521
 10
1070.641028
 20
-145.2341749999999
 10
1070.654696
 20
-145.2271119999999
 10
1070.668566
 20
-145.220336
 10
1070.682628999999
 20
-145.213852
 10
1070.696876
 20
-145.2076619999999
 10
1070.711299999999
 20
-145.201772
 10
1070.72589
 20
-145.196184
 10
1070.740639
 20
-145.190901
 10
1070.755536999999
 20
-145.1859279999999
 10
1070.770575999999
 20
-145.1812669999999
 10
1070.785745
 20
-145.1769209999999
 10
1070.801037
 20
-145.1728919999999
 10
1070.816441
 20
-145.169184
 10
1070.831948
 20
-145.165797
 10
1070.84755
 20
-145.162735
 10
1070.863235999999
 20
-145.16
 10
1070.878996
 20
-145.1575919999999
 10
1070.894822
 20
-145.1555129999999
 10
1070.910703999999
 20
-145.1537649999999
 10
1070.926631999999
 20
-145.1523479999999
 10
1070.942596
 20
-145.1512639999999
 10
1070.958586999999
 20
-145.1505129999999
 10
1070.974594999999
 20
-145.1500959999999
 10
1070.99061
 20
-145.150012
 10
1071.006623
 20
-145.150263
 10
1071.022624
 20
-145.150847
 10
1071.038602
 20
-145.1517649999999
 10
1071.05455
 20
-145.1530149999999
 10
1071.070456
 20
-145.1545969999999
 10
1071.086310999999
 20
-145.156511
 10
1071.102105
 20
-145.158755
 10
1071.11783
 20
-145.1613269999999
 10
1071.133475
 20
-145.164226
 10
1071.14903
 20
-145.16745
 10
1071.164487
 20
-145.1709979999999
 10
1071.179836
 20
-145.174867
 10
1071.195067999999
 20
-145.179054
 10
1071.210172999999
 20
-145.183558
 10
1071.225142
 20
-145.188376
 10
1071.239967
 20
-145.1935039999999
 10
1071.254638
 20
-145.1989399999999
 10
1071.269146
 20
-145.2046789999999
 10
1071.283482
 20
-145.21072
 10
1071.297639
 20
-145.217057
 10
1071.311606
 20
-145.2236879999999
 10
1071.325376
 20
-145.230608
 10
1071.338941
 20
-145.2378129999999
 10
1071.352292
 20
-145.2452979999999
 10
1071.36542
 20
-145.25306
 10
1071.378318999999
 20
-145.2610929999999
 10
1071.39098
 20
-145.2693919999999
 10
1071.403394999999
 20
-145.2779529999999
 10
1071.415557
 20
-145.2867689999999
 10
1071.427459
 20
-145.295837
 10
1071.439093
 20
-145.3051499999999
 10
1071.450452999999
 20
-145.314703
 10
1071.461531
 20
-145.32449
 10
1071.472319999999
 20
-145.334505
 10
1071.482815
 20
-145.344742
 10
1071.493009
 20
-145.3551939999999
 10
1071.502894999999
 20
-145.365856
 10
1071.512467
 20
-145.37672
 10
1071.521721
 20
-145.387781
 10
1071.530649
 20
-145.399031
 10
1071.539247
 20
-145.4104639999999
 10
1071.54751
 20
-145.422073
 10
1071.555432
 20
-145.433851
 10
1071.563008999999
 20
-145.4457899999999
 10
1071.570236
 20
-145.457883
 10
1071.577109
 20
-145.470124
 10
1071.583623
 20
-145.482504
 10
1071.589774
 20
-145.4950159999999
 10
1071.59556
 20
-145.507652
 10
1071.600976
 20
-145.5204059999999
 10
1071.606019
 20
-145.5332679999999
 10
1071.610685
 20
-145.546232
 10
1071.614972999999
 20
-145.5592879999999
 10
1071.618879999999
 20
-145.5724309999999
 10
1071.622402
 20
-145.585651
 10
1071.625539
 20
-145.5989399999999
 10
1071.628287
 20
-145.6122899999999
 10
1071.630646999999
 20
-145.6256939999999
 10
1071.632615
 20
-145.6391429999999
 10
1071.634191
 20
-145.652629
 10
1071.635373
 20
-145.666143
 10
1071.636162
 20
-145.679679
 10
1071.636557
 20
-145.693226
 10
1071.636557
 20
-145.706778
 10
1071.636162
 20
-145.720325
 10
1071.635373
 20
-145.73386
 10
1071.634191
 20
-145.747375
 10
1071.632615
 20
-145.760861
 10
1071.630646999999
 20
-145.77431
 10
1071.628287
 20
-145.7877139999999
 10
1071.625539
 20
-145.8010639999999
 10
1071.622402
 20
-145.814353
 10
1071.618879999999
 20
-145.8275729999999
 10
1071.614972999999
 20
-145.8407159999999
 10
1071.610685
 20
-145.8537719999999
 10
1071.606019
 20
-145.8667359999999
 10
1071.600976
 20
-145.8795979999999
 10
1071.59556
 20
-145.8923519999999
 10
1071.589774
 20
-145.904988
 10
1071.583623
 20
-145.9174999999999
 10
1071.577109
 20
-145.92988
 10
1071.570236
 20
-145.9421209999999
 10
1071.563008999999
 20
-145.9542139999999
 10
1071.555432
 20
-145.9661529999999
 10
1071.54751
 20
-145.977931
 10
1071.539247
 20
-145.9895399999999
 10
1071.530649
 20
-146.0009729999999
 10
1071.521721
 20
-146.012223
 10
1071.512467
 20
-146.023284
 10
1071.502894999999
 20
-146.0341479999999
 10
1071.493009
 20
-146.04481
 10
1071.482815
 20
-146.055262
 10
1071.472319999999
 20
-146.0654989999999
 10
1071.461531
 20
-146.075514
 10
1071.450452999999
 20
-146.0853009999999
 10
1071.439093
 20
-146.0948539999999
 10
1071.427459
 20
-146.104167
 10
1071.415557
 20
-146.1132349999999
 10
1071.403394999999
 20
-146.1220509999999
 10
1071.39098
 20
-146.130612
 10
1071.378318999999
 20
-146.138911
 10
1071.36542
 20
-146.1469439999999
 10
1071.352292
 20
-146.154706
 10
1071.338941
 20
-146.1621909999999
 10
1071.325376
 20
-146.169396
 10
1071.311606
 20
-146.1763159999999
 10
1071.297639
 20
-146.1829469999999
 10
1071.283482
 20
-146.189284
 10
1071.269146
 20
-146.195325
 10
1071.254638
 20
-146.201064
 10
1071.239967
 20
-146.2065
 10
1071.225142
 20
-146.2116279999999
 10
1071.210172999999
 20
-146.2164459999999
 10
1071.195067999999
 20
-146.2209499999999
 10
1071.179836
 20
-146.225137
 10
1071.164487
 20
-146.2290059999999
 10
1071.14903
 20
-146.2325539999999
 10
1071.133475
 20
-146.235778
 10
1071.11783
 20
-146.2386769999999
 10
1071.102105
 20
-146.241249
 10
1071.086310999999
 20
-146.243493
 10
1071.070456
 20
-146.2454069999999
 10
1071.05455
 20
-146.2469889999999
 10
1071.038602
 20
-146.2482389999999
 10
1071.022624
 20
-146.249157
 10
1071.006623
 20
-146.249741
 10
1070.99061
 20
-146.2499919999999
 10
1070.974594999999
 20
-146.249908
 10
1070.958586999999
 20
-146.2494909999999
 10
1070.942596
 20
-146.24874
 10
1070.926631999999
 20
-146.2476559999999
 10
1070.910703999999
 20
-146.2462389999999
 10
1070.894822
 20
-146.2444909999999
 10
1070.878996
 20
-146.242412
 10
1070.863235999999
 20
-146.240004
 10
1070.84755
 20
-146.237269
 10
1070.831948
 20
-146.234207
 10
1070.816441
 20
-146.23082
 10
1070.801037
 20
-146.227112
 10
1070.785745
 20
-146.223083
 10
1070.770575999999
 20
-146.218737
 10
1070.755536999999
 20
-146.214076
 10
1070.740639
 20
-146.209103
 10
1070.72589
 20
-146.20382
 10
1070.711299999999
 20
-146.198232
 10
1070.696876
 20
-146.1923419999999
 10
1070.682628999999
 20
-146.186152
 10
1070.668566
 20
-146.1796679999999
 10
1070.654696
 20
-146.1728919999999
 10
1070.641028
 20
-146.165829
 10
1070.627569
 20
-146.158483
 10
1070.614328
 20
-146.150859
 10
1070.601313999999
 20
-146.142961
 10
1070.588533
 20
-146.1347949999999
 10
1070.575994
 20
-146.126364
 10
1070.563704
 20
-146.1176749999999
 10
1070.551671
 20
-146.108732
 10
1070.539901999999
 20
-146.0995399999999
 10
1070.528405
 20
-146.090107
 10
1070.517184999999
 20
-146.080436
 10
1070.506249999999
 20
-146.070535
 10
1070.495607
 20
-146.0604079999999
 10
1070.485263
 20
-146.050063
 10
1070.475222
 20
-146.0395049999999
 10
1070.465492
 20
-146.028741
 10
1070.456078
 20
-146.0177779999999
 10
1070.446986999999
 20
-146.0066209999999
 10
1070.438223
 20
-145.995279
 10
1070.429791
 20
-145.9837569999999
 10
1070.421698
 20
-145.9720629999999
 10
1070.413948
 20
-145.960203
 10
1070.406546
 20
-145.948186
 10
1070.399496
 20
-145.936018
 10
1070.392801999999
 20
-145.923707
 10
1070.386467999999
 20
-145.91126
 10
1070.380499
 20
-145.898685
 10
1070.374898
 20
-145.885989
 10
1070.369668999999
 20
-145.8731799999999
 10
1070.364813
 20
-145.8602659999999
 10
1070.360336
 20
-145.847255
 10
1070.356238
 20
-145.834155
 10
1070.352523
 20
-145.8209719999999
 10
1070.349194
 20
-145.8077169999999
 10
1070.346250999999
 20
-145.794396
 10
1070.343696999999
 20
-145.7810179999999
 10
1070.341533
 20
-145.7675909999999
 10
1070.339761
 20
-145.7541219999999
 10
1070.338381
 20
-145.740621
 10
1070.337394999999
 20
-145.7270949999999
  0
LWPOLYLINE
  5
4E3
330
36
100
AcDbEntity
  8
1
  6
CONTINUOUS
 62
     5
100
AcDbPolyline
 90
        4
 70
     1
 43
0.0
 10
1071.836606
 20
-142.6500019999999
 10
1073.136606
 20
-142.6500019999999
 10
1073.136606
 20
-141.550002
 10
1071.836606
 20
-141.550002
  0
LWPOLYLINE
  5
4E9
330
36
100
AcDbEntity
  8
1
  6
CONTINUOUS
 62
     5
100
AcDbPolyline
 90
      255
 70
     1
 43
0.0
 10
1070.336803999999
 20
-142.1135529999999
 10
1070.336606
 20
-142.1000019999999
 10
1070.336803999999
 20
-142.086451
 10
1070.337394999999
 20
-142.072909
 10
1070.338381
 20
-142.059383
 10
1070.339761
 20
-142.045882
 10
1070.341533
 20
-142.032413
 10
1070.343696999999
 20
-142.018986
 10
1070.346250999999
 20
-142.0056079999999
 10
1070.349194
 20
-141.992287
 10
1070.352523
 20
-141.9790309999999
 10
1070.356238
 20
-141.9658489999999
 10
1070.360336
 20
-141.952749
 10
1070.364813
 20
-141.9397379999999
 10
1070.369668999999
 20
-141.926824
 10
1070.374898
 20
-141.9140149999999
 10
1070.380499
 20
-141.901319
 10
1070.386467999999
 20
-141.8887439999999
 10
1070.392801999999
 20
-141.8762969999999
 10
1070.399496
 20
-141.863986
 10
1070.406546
 20
-141.8518179999999
 10
1070.413948
 20
-141.8398009999999
 10
1070.421698
 20
-141.8279409999999
 10
1070.429791
 20
-141.816247
 10
1070.438223
 20
-141.8047249999999
 10
1070.446986999999
 20
-141.793383
 10
1070.456078
 20
-141.782226
 10
1070.465492
 20
-141.7712629999999
 10
1070.475222
 20
-141.760499
 10
1070.485263
 20
-141.7499409999999
 10
1070.495607
 20
-141.739596
 10
1070.506249999999
 20
-141.729469
 10
1070.517184999999
 20
-141.7195679999999
 10
1070.528405
 20
-141.7098969999999
 10
1070.539901999999
 20
-141.7004639999999
 10
1070.551671
 20
-141.691272
 10
1070.563704
 20
-141.682329
 10
1070.575994
 20
-141.6736399999999
 10
1070.588533
 20
-141.665209
 10
1070.601313999999
 20
-141.657042
 10
1070.614328
 20
-141.649145
 10
1070.627569
 20
-141.6415209999999
 10
1070.641028
 20
-141.6341749999999
 10
1070.654696
 20
-141.627112
 10
1070.668566
 20
-141.620336
 10
1070.682628999999
 20
-141.613852
 10
1070.696876
 20
-141.607662
 10
1070.711299999999
 20
-141.601772
 10
1070.72589
 20
-141.596184
 10
1070.740639
 20
-141.590901
 10
1070.755536999999
 20
-141.585928
 10
1070.770575999999
 20
-141.581267
 10
1070.785745
 20
-141.576921
 10
1070.801037
 20
-141.572892
 10
1070.816441
 20
-141.569184
 10
1070.831948
 20
-141.5657969999999
 10
1070.84755
 20
-141.562735
 10
1070.863235999999
 20
-141.5599999999999
 10
1070.878996
 20
-141.557592
 10
1070.894822
 20
-141.5555129999999
 10
1070.910703999999
 20
-141.553765
 10
1070.926631999999
 20
-141.552348
 10
1070.942596
 20
-141.551264
 10
1070.958586999999
 20
-141.5505129999999
 10
1070.974594999999
 20
-141.5500959999999
 10
1070.99061
 20
-141.550012
 10
1071.006623
 20
-141.5502629999999
 10
1071.022624
 20
-141.5508469999999
 10
1071.038602
 20
-141.5517649999999
 10
1071.05455
 20
-141.5530149999999
 10
1071.070456
 20
-141.5545969999999
 10
1071.086310999999
 20
-141.556511
 10
1071.102105
 20
-141.5587549999999
 10
1071.11783
 20
-141.561327
 10
1071.133475
 20
-141.564226
 10
1071.14903
 20
-141.56745
 10
1071.164487
 20
-141.570998
 10
1071.179836
 20
-141.5748669999999
 10
1071.195067999999
 20
-141.579054
 10
1071.210172999999
 20
-141.583558
 10
1071.225142
 20
-141.588376
 10
1071.239967
 20
-141.5935039999999
 10
1071.254638
 20
-141.5989399999999
 10
1071.269146
 20
-141.604679
 10
1071.283482
 20
-141.6107199999999
 10
1071.297639
 20
-141.617057
 10
1071.311606
 20
-141.6236879999999
 10
1071.325376
 20
-141.630608
 10
1071.338941
 20
-141.637813
 10
1071.352292
 20
-141.645298
 10
1071.36542
 20
-141.65306
 10
1071.378318999999
 20
-141.661093
 10
1071.39098
 20
-141.6693919999999
 10
1071.403394999999
 20
-141.677953
 10
1071.415557
 20
-141.6867689999999
 10
1071.427459
 20
-141.695837
 10
1071.439093
 20
-141.70515
 10
1071.450452999999
 20
-141.714703
 10
1071.461531
 20
-141.72449
 10
1071.472319999999
 20
-141.734505
 10
1071.482815
 20
-141.744742
 10
1071.493009
 20
-141.7551939999999
 10
1071.502894999999
 20
-141.765856
 10
1071.512467
 20
-141.7767199999999
 10
1071.521721
 20
-141.787781
 10
1071.530649
 20
-141.799031
 10
1071.539247
 20
-141.8104639999999
 10
1071.54751
 20
-141.8220729999999
 10
1071.555432
 20
-141.833851
 10
1071.563008999999
 20
-141.8457899999999
 10
1071.570236
 20
-141.857883
 10
1071.577109
 20
-141.870124
 10
1071.583623
 20
-141.882504
 10
1071.589774
 20
-141.895016
 10
1071.59556
 20
-141.907652
 10
1071.600976
 20
-141.920406
 10
1071.606019
 20
-141.9332679999999
 10
1071.610685
 20
-141.946232
 10
1071.614972999999
 20
-141.9592879999999
 10
1071.618879999999
 20
-141.972431
 10
1071.622402
 20
-141.9856509999999
 10
1071.625539
 20
-141.99894
 10
1071.628287
 20
-142.0122899999999
 10
1071.630646999999
 20
-142.0256939999999
 10
1071.632615
 20
-142.039143
 10
1071.634191
 20
-142.0526289999999
 10
1071.635373
 20
-142.0661429999999
 10
1071.636162
 20
-142.0796789999999
 10
1071.636557
 20
-142.0932259999999
 10
1071.636557
 20
-142.106778
 10
1071.636162
 20
-142.120325
 10
1071.635373
 20
-142.13386
 10
1071.634191
 20
-142.147375
 10
1071.632615
 20
-142.160861
 10
1071.630646999999
 20
-142.17431
 10
1071.628287
 20
-142.187714
 10
1071.625539
 20
-142.201064
 10
1071.622402
 20
-142.214353
 10
1071.618879999999
 20
-142.227573
 10
1071.614972999999
 20
-142.2407159999999
 10
1071.610685
 20
-142.253772
 10
1071.606019
 20
-142.266736
 10
1071.600976
 20
-142.2795979999999
 10
1071.59556
 20
-142.2923519999999
 10
1071.589774
 20
-142.3049879999999
 10
1071.583623
 20
-142.3175
 10
1071.577109
 20
-142.3298799999999
 10
1071.570236
 20
-142.3421209999999
 10
1071.563008999999
 20
-142.3542139999999
 10
1071.555432
 20
-142.3661529999999
 10
1071.54751
 20
-142.377931
 10
1071.539247
 20
-142.3895399999999
 10
1071.530649
 20
-142.4009729999999
 10
1071.521721
 20
-142.412223
 10
1071.512467
 20
-142.4232839999999
 10
1071.502894999999
 20
-142.434148
 10
1071.493009
 20
-142.44481
 10
1071.482815
 20
-142.455262
 10
1071.472319999999
 20
-142.465499
 10
1071.461531
 20
-142.4755139999999
 10
1071.450452999999
 20
-142.4853009999999
 10
1071.439093
 20
-142.494854
 10
1071.427459
 20
-142.5041669999999
 10
1071.415557
 20
-142.513235
 10
1071.403394999999
 20
-142.522051
 10
1071.39098
 20
-142.530612
 10
1071.378318999999
 20
-142.538911
 10
1071.36542
 20
-142.546944
 10
1071.352292
 20
-142.554706
 10
1071.338941
 20
-142.5621909999999
 10
1071.325376
 20
-142.5693959999999
 10
1071.311606
 20
-142.5763159999999
 10
1071.297639
 20
-142.5829469999999
 10
1071.283482
 20
-142.589284
 10
1071.269146
 20
-142.595325
 10
1071.254638
 20
-142.6010639999999
 10
1071.239967
 20
-142.6065
 10
1071.225142
 20
-142.611628
 10
1071.210172999999
 20
-142.616446
 10
1071.195067999999
 20
-142.6209499999999
 10
1071.179836
 20
-142.625137
 10
1071.164487
 20
-142.629006
 10
1071.14903
 20
-142.632554
 10
1071.133475
 20
-142.635778
 10
1071.11783
 20
-142.638677
 10
1071.102105
 20
-142.6412489999999
 10
1071.086310999999
 20
-142.643493
 10
1071.070456
 20
-142.645407
 10
1071.05455
 20
-142.6469889999999
 10
1071.038602
 20
-142.6482389999999
 10
1071.022624
 20
-142.649157
 10
1071.006623
 20
-142.6497409999999
 10
1070.99061
 20
-142.6499919999999
 10
1070.974594999999
 20
-142.649908
 10
1070.958586999999
 20
-142.6494909999999
 10
1070.942596
 20
-142.64874
 10
1070.926631999999
 20
-142.647656
 10
1070.910703999999
 20
-142.6462389999999
 10
1070.894822
 20
-142.6444909999999
 10
1070.878996
 20
-142.642412
 10
1070.863235999999
 20
-142.640004
 10
1070.84755
 20
-142.6372689999999
 10
1070.831948
 20
-142.634207
 10
1070.816441
 20
-142.63082
 10
1070.801037
 20
-142.627112
 10
1070.785745
 20
-142.623083
 10
1070.770575999999
 20
-142.618737
 10
1070.755536999999
 20
-142.614076
 10
1070.740639
 20
-142.609103
 10
1070.72589
 20
-142.6038199999999
 10
1070.711299999999
 20
-142.5982319999999
 10
1070.696876
 20
-142.5923419999999
 10
1070.682628999999
 20
-142.5861519999999
 10
1070.668566
 20
-142.5796679999999
 10
1070.654696
 20
-142.572892
 10
1070.641028
 20
-142.565829
 10
1070.627569
 20
-142.558483
 10
1070.614328
 20
-142.5508589999999
 10
1070.601313999999
 20
-142.542961
 10
1070.588533
 20
-142.534795
 10
1070.575994
 20
-142.526364
 10
1070.563704
 20
-142.517675
 10
1070.551671
 20
-142.508732
 10
1070.539901999999
 20
-142.49954
 10
1070.528405
 20
-142.4901069999999
 10
1070.517184999999
 20
-142.4804359999999
 10
1070.506249999999
 20
-142.470535
 10
1070.495607
 20
-142.4604079999999
 10
1070.485263
 20
-142.450063
 10
1070.475222
 20
-142.439505
 10
1070.465492
 20
-142.4287409999999
 10
1070.456078
 20
-142.4177779999999
 10
1070.446986999999
 20
-142.406621
 10
1070.438223
 20
-142.395279
 10
1070.429791
 20
-142.383757
 10
1070.421698
 20
-142.372063
 10
1070.413948
 20
-142.360203
 10
1070.406546
 20
-142.348186
 10
1070.399496
 20
-142.3360179999999
 10
1070.392801999999
 20
-142.323707
 10
1070.386467999999
 20
-142.31126
 10
1070.380499
 20
-142.298685
 10
1070.374898
 20
-142.2859889999999
 10
1070.369668999999
 20
-142.27318
 10
1070.364813
 20
-142.260266
 10
1070.360336
 20
-142.2472549999999
 10
1070.356238
 20
-142.234155
 10
1070.352523
 20
-142.2209719999999
 10
1070.349194
 20
-142.207717
 10
1070.346250999999
 20
-142.1943959999999
 10
1070.343696999999
 20
-142.181018
 10
1070.341533
 20
-142.1675909999999
 10
1070.339761
 20
-142.1541219999999
 10
1070.338381
 20
-142.140621
 10
1070.337394999999
 20
-142.127095
  0
LWPOLYLINE
  5
5EA
330
36
100
AcDbEntity
  8
1
  6
CONTINUOUS
 62
     5
100
AcDbPolyline
 90
        4
 70
     1
 43
0.0
 10
1073.336606
 20
-140.2500019999999
 10
1074.636606
 20
-140.2500019999999
 10
1074.636606
 20
-139.150002
 10
1073.336606
 20
-139.150002
  0
LWPOLYLINE
  5
5F0
330
36
100
AcDbEntity
  8
1
  6
CONTINUOUS
 62
     5
100
AcDbPolyline
 90
        4
 70
     1
 43
0.0
 10
1073.336606
 20
-141.450002
 10
1074.636606
 20
-141.450002
 10
1074.636606
 20
-140.3500019999999
 10
1073.336606
 20
-140.3500019999999
  0
LWPOLYLINE
  5
5F6
330
36
100
AcDbEntity
  8
1
  6
CONTINUOUS
 62
     5
100
AcDbPolyline
 90
        4
 70
     1
 43
0.0
 10
1073.336606
 20
-145.0500019999999
 10
1074.636606
 20
-145.0500019999999
 10
1074.636606
 20
-143.950002
 10
1073.336606
 20
-143.950002
  0
LWPOLYLINE
  5
5FC
330
36
100
AcDbEntity
  8
1
  6
CONTINUOUS
 62
     5
100
AcDbPolyline
 90
        4
 70
     1
 43
0.0
 10
1073.336606
 20
-143.850002
 10
1074.636606
 20
-143.850002
 10
1074.636606
 20
-142.7500019999999
 10
1073.336606
 20
-142.7500019999999
  0
LWPOLYLINE
  5
602
330
36
100
AcDbEntity
  8
1
  6
CONTINUOUS
 62
     5
100
AcDbPolyline
 90
        4
 70
     1
 43
0.0
 10
1073.336606
 20
-146.250002
 10
1074.636606
 20
-146.250002
 10
1074.636606
 20
-145.150002
 10
1073.336606
 20
-145.150002
  0
LWPOLYLINE
  5
608
330
36
100
AcDbEntity
  8
1
  6
CONTINUOUS
 62
     5
100
AcDbPolyline
 90
        4
 70
     1
 43
0.0
 10
1073.336606
 20
-147.450002
 10
1074.636606
 20
-147.450002
 10
1074.636606
 20
-146.3500019999999
 10
1073.336606
 20
-146.3500019999999
  0
LWPOLYLINE
  5
60E
330
36
100
AcDbEntity
  8
1
  6
CONTINUOUS
 62
     5
100
AcDbPolyline
 90
        4
 70
     1
 43
0.0
 10
1073.336606
 20
-142.6500019999999
 10
1074.636606
 20
-142.6500019999999
 10
1074.636606
 20
-141.550002
 10
1073.336606
 20
-141.550002
  0
LWPOLYLINE
  5
614
330
36
100
AcDbEntity
  8
1
  6
CONTINUOUS
 62
     5
100
AcDbPolyline
 90
        4
 70
     0
 43
0.0
 10
1080.999998
 20
-156.4999999999999
 10
1080.999998
 20
-158.0
 10
1080.899998
 20
-158.0
 10
1080.899998
 20
-156.4999999999999
  0
LINE
  5
61A
330
36
100
AcDbEntity
  8
1
  6
CONTINUOUS
 62
     5
100
AcDbLine
 10
1080.699998
 20
-158.0
 30
0.0
 11
1080.699998
 21
-156.4999999999999
 31
0.0
  0
LWPOLYLINE
  5
61B
330
36
100
AcDbEntity
  8
1
  6
CONTINUOUS
 62
     5
100
AcDbPolyline
 90
        4
 70
     1
 43
0.0
 10
1074.885462999999
 20
-151.6
 10
1077.285463
 20
-151.6
 10
1077.285463
 20
-153.3999999999999
 10
1074.885462999999
 20
-153.3999999999999
  0
LINE
  5
621
330
36
100
AcDbEntity
  8
1
  6
DASHED
 62
     5
100
AcDbLine
 10
1076.499998
 20
-158.0
 30
0.0
 11
1076.499998
 21
-156.4999999999999
 31
0.0
  0
CIRCLE
  5
622
330
36
100
AcDbEntity
  8
1
  6
CONTINUOUS
 62
     5
100
AcDbCircle
 10
1070.999998
 20
-159.0
 30
0.0
 40
0.5
  0
CIRCLE
  5
623
330
36
100
AcDbEntity
  8
1
  6
CONTINUOUS
 62
     5
100
AcDbCircle
 10
1070.999998
 20
-159.0
 30
0.0
 40
0.5
  0
CIRCLE
  5
624
330
36
100
AcDbEntity
  8
1
  6
CONTINUOUS
 62
     5
100
AcDbCircle
 10
1070.999998
 20
-159.0
 30
0.0
 40
0.7
  0
CIRCLE
  5
625
330
36
100
AcDbEntity
  8
1
  6
CONTINUOUS
 62
     5
100
AcDbCircle
 10
1070.999998
 20
-159.0
 30
0.0
 40
0.7
  0
LINE
  5
626
330
36
100
AcDbEntity
  8
1
  6
DOT2
 62
     5
100
AcDbLine
 10
1082.999998
 20
-159.8866669999999
 30
0.0
 11
1082.999998
 21
-165.9544439999999
 31
0.0
  0
LINE
  5
627
330
36
100
AcDbEntity
  8
1
  6
DASHED
 62
     5
100
AcDbLine
 10
1076.499998
 20
-158.0
 30
0.0
 11
1076.499998
 21
-164.5
 31
0.0
  0
LWPOLYLINE
  5
628
330
36
100
AcDbEntity
  8
1
  6
CONTINUOUS
 62
     5
100
AcDbPolyline
 90
        4
 70
     1
 43
0.0
 10
1067.336606
 20
-140.2500019999999
 10
1068.636606
 20
-140.2500019999999
 10
1068.636606
 20
-139.150002
 10
1067.336606
 20
-139.150002
  0
LWPOLYLINE
  5
62E
330
36
100
AcDbEntity
  8
1
  6
CONTINUOUS
 62
     5
100
AcDbPolyline
 90
        4
 70
     1
 43
0.0
 10
1067.336606
 20
-141.450002
 10
1068.636606
 20
-141.450002
 10
1068.636606
 20
-140.3500019999999
 10
1067.336606
 20
-140.3500019999999
  0
LWPOLYLINE
  5
634
330
36
100
AcDbEntity
  8
1
  6
CONTINUOUS
 62
     5
100
AcDbPolyline
 90
      255
 70
     1
 43
0.0
 10
1067.336803999999
 20
-144.5135529999999
 10
1067.336606
 20
-144.5000019999999
 10
1067.336803999999
 20
-144.4864509999999
 10
1067.337395
 20
-144.472909
 10
1067.338381
 20
-144.459383
 10
1067.339761
 20
-144.445882
 10
1067.341533
 20
-144.432413
 10
1067.343697
 20
-144.418986
 10
1067.346251
 20
-144.405608
 10
1067.349193999999
 20
-144.392287
 10
1067.352523
 20
-144.3790309999999
 10
1067.356238
 20
-144.3658489999999
 10
1067.360335999999
 20
-144.3527489999999
 10
1067.364813
 20
-144.3397379999999
 10
1067.369669
 20
-144.3268239999999
 10
1067.374898
 20
-144.3140149999999
 10
1067.380499
 20
-144.301319
 10
1067.386468
 20
-144.2887439999999
 10
1067.392801999999
 20
-144.2762969999999
 10
1067.399495999999
 20
-144.263986
 10
1067.406546
 20
-144.2518179999999
 10
1067.413948
 20
-144.2398009999999
 10
1067.421698
 20
-144.2279409999999
 10
1067.429791
 20
-144.216247
 10
1067.438223
 20
-144.2047249999999
 10
1067.446986999999
 20
-144.193383
 10
1067.456077999999
 20
-144.182226
 10
1067.465491999999
 20
-144.1712629999999
 10
1067.475222
 20
-144.1604989999999
 10
1067.485263
 20
-144.1499409999999
 10
1067.495607
 20
-144.1395959999999
 10
1067.506249999999
 20
-144.129469
 10
1067.517185
 20
-144.1195679999999
 10
1067.528405
 20
-144.1098969999999
 10
1067.539902
 20
-144.1004639999999
 10
1067.551671
 20
-144.091272
 10
1067.563704
 20
-144.082329
 10
1067.575994
 20
-144.0736399999999
 10
1067.588533
 20
-144.065209
 10
1067.601314
 20
-144.057042
 10
1067.614328
 20
-144.0491449999999
 10
1067.627569
 20
-144.0415209999999
 10
1067.641028
 20
-144.0341749999999
 10
1067.654696
 20
-144.027112
 10
1067.668566
 20
-144.020336
 10
1067.682628999999
 20
-144.013852
 10
1067.696876
 20
-144.007662
 10
1067.7113
 20
-144.0017719999999
 10
1067.725889999999
 20
-143.996184
 10
1067.740639
 20
-143.990901
 10
1067.755537
 20
-143.985928
 10
1067.770575999999
 20
-143.981267
 10
1067.785744999999
 20
-143.976921
 10
1067.801036999999
 20
-143.972892
 10
1067.816440999999
 20
-143.969184
 10
1067.831948
 20
-143.965797
 10
1067.847549999999
 20
-143.962735
 10
1067.863235999999
 20
-143.96
 10
1067.878996
 20
-143.957592
 10
1067.894822
 20
-143.955513
 10
1067.910703999999
 20
-143.953765
 10
1067.926632
 20
-143.952348
 10
1067.942596
 20
-143.9512639999999
 10
1067.958586999999
 20
-143.950513
 10
1067.974594999999
 20
-143.9500959999999
 10
1067.99061
 20
-143.950012
 10
1068.006623
 20
-143.9502629999999
 10
1068.022623999999
 20
-143.9508469999999
 10
1068.038601999999
 20
-143.9517649999999
 10
1068.05455
 20
-143.9530149999999
 10
1068.070456
 20
-143.954597
 10
1068.086311
 20
-143.956511
 10
1068.102105
 20
-143.9587549999999
 10
1068.11783
 20
-143.961327
 10
1068.133475
 20
-143.964226
 10
1068.14903
 20
-143.96745
 10
1068.164486999999
 20
-143.970998
 10
1068.179836
 20
-143.9748669999999
 10
1068.195068
 20
-143.9790539999999
 10
1068.210172999999
 20
-143.983558
 10
1068.225141999999
 20
-143.9883759999999
 10
1068.239967
 20
-143.9935039999999
 10
1068.254638
 20
-143.9989399999999
 10
1068.269146
 20
-144.004679
 10
1068.283482
 20
-144.0107199999999
 10
1068.297639
 20
-144.017057
 10
1068.311605999999
 20
-144.023688
 10
1068.325375999999
 20
-144.030608
 10
1068.338941
 20
-144.037813
 10
1068.352291999999
 20
-144.045298
 10
1068.365419999999
 20
-144.05306
 10
1068.378319
 20
-144.061093
 10
1068.39098
 20
-144.069392
 10
1068.403394999999
 20
-144.077953
 10
1068.415557
 20
-144.086769
 10
1068.427459
 20
-144.095837
 10
1068.439093
 20
-144.10515
 10
1068.450453
 20
-144.1147029999999
 10
1068.461531
 20
-144.1244899999999
 10
1068.472319999999
 20
-144.134505
 10
1068.482815
 20
-144.1447419999999
 10
1068.493008999999
 20
-144.1551939999999
 10
1068.502894999999
 20
-144.165856
 10
1068.512467
 20
-144.1767199999999
 10
1068.521721
 20
-144.187781
 10
1068.530649
 20
-144.199031
 10
1068.539247
 20
-144.2104639999999
 10
1068.547509999999
 20
-144.222073
 10
1068.555432
 20
-144.2338509999999
 10
1068.563009
 20
-144.2457899999999
 10
1068.570236
 20
-144.257883
 10
1068.577109
 20
-144.270124
 10
1068.583623
 20
-144.282504
 10
1068.589774
 20
-144.295016
 10
1068.59556
 20
-144.3076519999999
 10
1068.600975999999
 20
-144.320406
 10
1068.606019
 20
-144.333268
 10
1068.610685
 20
-144.346232
 10
1068.614973
 20
-144.3592879999999
 10
1068.61888
 20
-144.372431
 10
1068.622401999999
 20
-144.3856509999999
 10
1068.625539
 20
-144.3989399999999
 10
1068.628286999999
 20
-144.4122899999999
 10
1068.630646999999
 20
-144.425694
 10
1068.632615
 20
-144.439143
 10
1068.634191
 20
-144.4526289999999
 10
1068.635372999999
 20
-144.4661429999999
 10
1068.636162
 20
-144.479679
 10
1068.636557
 20
-144.4932259999999
 10
1068.636557
 20
-144.506778
 10
1068.636162
 20
-144.520325
 10
1068.635372999999
 20
-144.53386
 10
1068.634191
 20
-144.5473749999999
 10
1068.632615
 20
-144.560861
 10
1068.630646999999
 20
-144.57431
 10
1068.628286999999
 20
-144.5877139999999
 10
1068.625539
 20
-144.6010639999999
 10
1068.622401999999
 20
-144.614353
 10
1068.61888
 20
-144.6275729999999
 10
1068.614973
 20
-144.6407159999999
 10
1068.610685
 20
-144.653772
 10
1068.606019
 20
-144.666736
 10
1068.600975999999
 20
-144.679598
 10
1068.59556
 20
-144.692352
 10
1068.589774
 20
-144.7049879999999
 10
1068.583623
 20
-144.7175
 10
1068.577109
 20
-144.72988
 10
1068.570236
 20
-144.7421209999999
 10
1068.563009
 20
-144.7542139999999
 10
1068.555432
 20
-144.7661529999999
 10
1068.547509999999
 20
-144.777931
 10
1068.539247
 20
-144.7895399999999
 10
1068.530649
 20
-144.800973
 10
1068.521721
 20
-144.8122229999999
 10
1068.512467
 20
-144.823284
 10
1068.502894999999
 20
-144.834148
 10
1068.493008999999
 20
-144.84481
 10
1068.482815
 20
-144.855262
 10
1068.472319999999
 20
-144.865499
 10
1068.461531
 20
-144.8755139999999
 10
1068.450453
 20
-144.885301
 10
1068.439093
 20
-144.894854
 10
1068.427459
 20
-144.9041669999999
 10
1068.415557
 20
-144.913235
 10
1068.403394999999
 20
-144.922051
 10
1068.39098
 20
-144.930612
 10
1068.378319
 20
-144.938911
 10
1068.365419999999
 20
-144.946944
 10
1068.352291999999
 20
-144.954706
 10
1068.338941
 20
-144.9621909999999
 10
1068.325375999999
 20
-144.9693959999999
 10
1068.311605999999
 20
-144.976316
 10
1068.297639
 20
-144.982947
 10
1068.283482
 20
-144.9892839999999
 10
1068.269146
 20
-144.995325
 10
1068.254638
 20
-145.0010639999999
 10
1068.239967
 20
-145.0064999999999
 10
1068.225141999999
 20
-145.011628
 10
1068.210172999999
 20
-145.016446
 10
1068.195068
 20
-145.0209499999999
 10
1068.179836
 20
-145.0251369999999
 10
1068.164486999999
 20
-145.029006
 10
1068.14903
 20
-145.032554
 10
1068.133475
 20
-145.035778
 10
1068.11783
 20
-145.038677
 10
1068.102105
 20
-145.0412489999999
 10
1068.086311
 20
-145.0434929999999
 10
1068.070456
 20
-145.045407
 10
1068.05455
 20
-145.0469889999999
 10
1068.038601999999
 20
-145.0482389999999
 10
1068.022623999999
 20
-145.049157
 10
1068.006623
 20
-145.0497409999999
 10
1067.99061
 20
-145.049992
 10
1067.974594999999
 20
-145.049908
 10
1067.958586999999
 20
-145.0494909999999
 10
1067.942596
 20
-145.0487399999999
 10
1067.926632
 20
-145.047656
 10
1067.910703999999
 20
-145.046239
 10
1067.894822
 20
-145.0444909999999
 10
1067.878996
 20
-145.042412
 10
1067.863235999999
 20
-145.040004
 10
1067.847549999999
 20
-145.0372689999999
 10
1067.831948
 20
-145.034207
 10
1067.816440999999
 20
-145.03082
 10
1067.801036999999
 20
-145.027112
 10
1067.785744999999
 20
-145.023083
 10
1067.770575999999
 20
-145.018737
 10
1067.755537
 20
-145.0140759999999
 10
1067.740639
 20
-145.009103
 10
1067.725889999999
 20
-145.0038199999999
 10
1067.7113
 20
-144.9982319999999
 10
1067.696876
 20
-144.9923419999999
 10
1067.682628999999
 20
-144.9861519999999
 10
1067.668566
 20
-144.979668
 10
1067.654696
 20
-144.972892
 10
1067.641028
 20
-144.965829
 10
1067.627569
 20
-144.958483
 10
1067.614328
 20
-144.950859
 10
1067.601314
 20
-144.9429609999999
 10
1067.588533
 20
-144.934795
 10
1067.575994
 20
-144.9263639999999
 10
1067.563704
 20
-144.917675
 10
1067.551671
 20
-144.908732
 10
1067.539902
 20
-144.89954
 10
1067.528405
 20
-144.8901069999999
 10
1067.517185
 20
-144.880436
 10
1067.506249999999
 20
-144.870535
 10
1067.495607
 20
-144.860408
 10
1067.485263
 20
-144.8500629999999
 10
1067.475222
 20
-144.839505
 10
1067.465491999999
 20
-144.8287409999999
 10
1067.456077999999
 20
-144.8177779999999
 10
1067.446986999999
 20
-144.806621
 10
1067.438223
 20
-144.7952789999999
 10
1067.429791
 20
-144.783757
 10
1067.421698
 20
-144.772063
 10
1067.413948
 20
-144.7602029999999
 10
1067.406546
 20
-144.748186
 10
1067.399495999999
 20
-144.7360179999999
 10
1067.392801999999
 20
-144.723707
 10
1067.386468
 20
-144.71126
 10
1067.380499
 20
-144.698685
 10
1067.374898
 20
-144.6859889999999
 10
1067.369669
 20
-144.67318
 10
1067.364813
 20
-144.6602659999999
 10
1067.360335999999
 20
-144.647255
 10
1067.356238
 20
-144.6341549999999
 10
1067.352523
 20
-144.6209719999999
 10
1067.349193999999
 20
-144.6077169999999
 10
1067.346251
 20
-144.5943959999999
 10
1067.343697
 20
-144.581018
 10
1067.341533
 20
-144.567591
 10
1067.339761
 20
-144.554122
 10
1067.338381
 20
-144.5406209999999
 10
1067.337395
 20
-144.527095
  0
LWPOLYLINE
  5
735
330
36
100
AcDbEntity
  8
1
  6
CONTINUOUS
 62
     5
100
AcDbPolyline
 90
      255
 70
     1
 43
0.0
 10
1067.336803999999
 20
-143.313553
 10
1067.336606
 20
-143.300002
 10
1067.336803999999
 20
-143.2864509999999
 10
1067.337395
 20
-143.272909
 10
1067.338381
 20
-143.259383
 10
1067.339761
 20
-143.2458819999999
 10
1067.341533
 20
-143.2324129999999
 10
1067.343697
 20
-143.218986
 10
1067.346251
 20
-143.205608
 10
1067.349193999999
 20
-143.192287
 10
1067.352523
 20
-143.179031
 10
1067.356238
 20
-143.165849
 10
1067.360335999999
 20
-143.152749
 10
1067.364813
 20
-143.1397379999999
 10
1067.369669
 20
-143.126824
 10
1067.374898
 20
-143.114015
 10
1067.380499
 20
-143.1013189999999
 10
1067.386468
 20
-143.088744
 10
1067.392801999999
 20
-143.076297
 10
1067.399495999999
 20
-143.063986
 10
1067.406546
 20
-143.0518179999999
 10
1067.413948
 20
-143.039801
 10
1067.421698
 20
-143.0279409999999
 10
1067.429791
 20
-143.0162469999999
 10
1067.438223
 20
-143.004725
 10
1067.446986999999
 20
-142.9933829999999
 10
1067.456077999999
 20
-142.9822259999999
 10
1067.465491999999
 20
-142.971263
 10
1067.475222
 20
-142.960499
 10
1067.485263
 20
-142.949941
 10
1067.495607
 20
-142.9395959999999
 10
1067.506249999999
 20
-142.9294689999999
 10
1067.517185
 20
-142.919568
 10
1067.528405
 20
-142.909897
 10
1067.539902
 20
-142.900464
 10
1067.551671
 20
-142.8912719999999
 10
1067.563704
 20
-142.8823289999999
 10
1067.575994
 20
-142.87364
 10
1067.588533
 20
-142.865209
 10
1067.601314
 20
-142.8570419999999
 10
1067.614328
 20
-142.8491449999999
 10
1067.627569
 20
-142.841521
 10
1067.641028
 20
-142.8341749999999
 10
1067.654696
 20
-142.8271119999999
 10
1067.668566
 20
-142.8203359999999
 10
1067.682628999999
 20
-142.813852
 10
1067.696876
 20
-142.807662
 10
1067.7113
 20
-142.8017719999999
 10
1067.725889999999
 20
-142.796184
 10
1067.740639
 20
-142.790901
 10
1067.755537
 20
-142.785928
 10
1067.770575999999
 20
-142.7812669999999
 10
1067.785744999999
 20
-142.7769209999999
 10
1067.801036999999
 20
-142.7728919999999
 10
1067.816440999999
 20
-142.769184
 10
1067.831948
 20
-142.765797
 10
1067.847549999999
 20
-142.762735
 10
1067.863235999999
 20
-142.7599999999999
 10
1067.878996
 20
-142.7575919999999
 10
1067.894822
 20
-142.7555129999999
 10
1067.910703999999
 20
-142.7537649999999
 10
1067.926632
 20
-142.752348
 10
1067.942596
 20
-142.7512639999999
 10
1067.958586999999
 20
-142.7505129999999
 10
1067.974594999999
 20
-142.7500959999999
 10
1067.99061
 20
-142.7500119999999
 10
1068.006623
 20
-142.750263
 10
1068.022623999999
 20
-142.750847
 10
1068.038601999999
 20
-142.7517649999999
 10
1068.05455
 20
-142.753015
 10
1068.070456
 20
-142.7545969999999
 10
1068.086311
 20
-142.756511
 10
1068.102105
 20
-142.758755
 10
1068.11783
 20
-142.7613269999999
 10
1068.133475
 20
-142.764226
 10
1068.14903
 20
-142.76745
 10
1068.164486999999
 20
-142.7709979999999
 10
1068.179836
 20
-142.7748669999999
 10
1068.195068
 20
-142.7790539999999
 10
1068.210172999999
 20
-142.7835579999999
 10
1068.225141999999
 20
-142.788376
 10
1068.239967
 20
-142.793504
 10
1068.254638
 20
-142.7989399999999
 10
1068.269146
 20
-142.8046789999999
 10
1068.283482
 20
-142.81072
 10
1068.297639
 20
-142.8170569999999
 10
1068.311605999999
 20
-142.8236879999999
 10
1068.325375999999
 20
-142.830608
 10
1068.338941
 20
-142.8378129999999
 10
1068.352291999999
 20
-142.8452979999999
 10
1068.365419999999
 20
-142.85306
 10
1068.378319
 20
-142.8610929999999
 10
1068.39098
 20
-142.869392
 10
1068.403394999999
 20
-142.8779529999999
 10
1068.415557
 20
-142.8867689999999
 10
1068.427459
 20
-142.8958369999999
 10
1068.439093
 20
-142.9051499999999
 10
1068.450453
 20
-142.914703
 10
1068.461531
 20
-142.92449
 10
1068.472319999999
 20
-142.934505
 10
1068.482815
 20
-142.9447419999999
 10
1068.493008999999
 20
-142.955194
 10
1068.502894999999
 20
-142.965856
 10
1068.512467
 20
-142.97672
 10
1068.521721
 20
-142.987781
 10
1068.530649
 20
-142.9990309999999
 10
1068.539247
 20
-143.0104639999999
 10
1068.547509999999
 20
-143.022073
 10
1068.555432
 20
-143.033851
 10
1068.563009
 20
-143.0457899999999
 10
1068.570236
 20
-143.0578829999999
 10
1068.577109
 20
-143.0701239999999
 10
1068.583623
 20
-143.082504
 10
1068.589774
 20
-143.0950159999999
 10
1068.59556
 20
-143.1076519999999
 10
1068.600975999999
 20
-143.1204059999999
 10
1068.606019
 20
-143.1332679999999
 10
1068.610685
 20
-143.146232
 10
1068.614973
 20
-143.1592879999999
 10
1068.61888
 20
-143.172431
 10
1068.622401999999
 20
-143.185651
 10
1068.625539
 20
-143.1989399999999
 10
1068.628286999999
 20
-143.2122899999999
 10
1068.630646999999
 20
-143.225694
 10
1068.632615
 20
-143.2391429999999
 10
1068.634191
 20
-143.252629
 10
1068.635372999999
 20
-143.266143
 10
1068.636162
 20
-143.279679
 10
1068.636557
 20
-143.293226
 10
1068.636557
 20
-143.306778
 10
1068.636162
 20
-143.320325
 10
1068.635372999999
 20
-143.33386
 10
1068.634191
 20
-143.347375
 10
1068.632615
 20
-143.360861
 10
1068.630646999999
 20
-143.37431
 10
1068.628286999999
 20
-143.3877139999999
 10
1068.625539
 20
-143.4010639999999
 10
1068.622401999999
 20
-143.414353
 10
1068.61888
 20
-143.4275729999999
 10
1068.614973
 20
-143.4407159999999
 10
1068.610685
 20
-143.4537719999999
 10
1068.606019
 20
-143.4667359999999
 10
1068.600975999999
 20
-143.479598
 10
1068.59556
 20
-143.492352
 10
1068.589774
 20
-143.504988
 10
1068.583623
 20
-143.5175
 10
1068.577109
 20
-143.5298799999999
 10
1068.570236
 20
-143.542121
 10
1068.563009
 20
-143.554214
 10
1068.555432
 20
-143.566153
 10
1068.547509999999
 20
-143.577931
 10
1068.539247
 20
-143.5895399999999
 10
1068.530649
 20
-143.600973
 10
1068.521721
 20
-143.612223
 10
1068.512467
 20
-143.623284
 10
1068.502894999999
 20
-143.634148
 10
1068.493008999999
 20
-143.6448099999999
 10
1068.482815
 20
-143.655262
 10
1068.472319999999
 20
-143.665499
 10
1068.461531
 20
-143.6755139999999
 10
1068.450453
 20
-143.685301
 10
1068.439093
 20
-143.6948539999999
 10
1068.427459
 20
-143.7041669999999
 10
1068.415557
 20
-143.7132349999999
 10
1068.403394999999
 20
-143.7220509999999
 10
1068.39098
 20
-143.730612
 10
1068.378319
 20
-143.7389109999999
 10
1068.365419999999
 20
-143.7469439999999
 10
1068.352291999999
 20
-143.7547059999999
 10
1068.338941
 20
-143.762191
 10
1068.325375999999
 20
-143.769396
 10
1068.311605999999
 20
-143.7763159999999
 10
1068.297639
 20
-143.782947
 10
1068.283482
 20
-143.789284
 10
1068.269146
 20
-143.7953249999999
 10
1068.254638
 20
-143.8010639999999
 10
1068.239967
 20
-143.8064999999999
 10
1068.225141999999
 20
-143.811628
 10
1068.210172999999
 20
-143.8164459999999
 10
1068.195068
 20
-143.82095
 10
1068.179836
 20
-143.825137
 10
1068.164486999999
 20
-143.8290059999999
 10
1068.14903
 20
-143.832554
 10
1068.133475
 20
-143.835778
 10
1068.11783
 20
-143.8386769999999
 10
1068.102105
 20
-143.841249
 10
1068.086311
 20
-143.8434929999999
 10
1068.070456
 20
-143.8454069999999
 10
1068.05455
 20
-143.8469889999999
 10
1068.038601999999
 20
-143.8482389999999
 10
1068.022623999999
 20
-143.849157
 10
1068.006623
 20
-143.8497409999999
 10
1067.99061
 20
-143.8499919999999
 10
1067.974594999999
 20
-143.8499079999999
 10
1067.958586999999
 20
-143.849491
 10
1067.942596
 20
-143.8487399999999
 10
1067.926632
 20
-143.8476559999999
 10
1067.910703999999
 20
-143.8462389999999
 10
1067.894822
 20
-143.844491
 10
1067.878996
 20
-143.842412
 10
1067.863235999999
 20
-143.8400039999999
 10
1067.847549999999
 20
-143.837269
 10
1067.831948
 20
-143.834207
 10
1067.816440999999
 20
-143.8308199999999
 10
1067.801036999999
 20
-143.827112
 10
1067.785744999999
 20
-143.823083
 10
1067.770575999999
 20
-143.818737
 10
1067.755537
 20
-143.814076
 10
1067.740639
 20
-143.809103
 10
1067.725889999999
 20
-143.80382
 10
1067.7113
 20
-143.798232
 10
1067.696876
 20
-143.7923419999999
 10
1067.682628999999
 20
-143.786152
 10
1067.668566
 20
-143.7796679999999
 10
1067.654696
 20
-143.7728919999999
 10
1067.641028
 20
-143.7658289999999
 10
1067.627569
 20
-143.758483
 10
1067.614328
 20
-143.750859
 10
1067.601314
 20
-143.742961
 10
1067.588533
 20
-143.7347949999999
 10
1067.575994
 20
-143.7263639999999
 10
1067.563704
 20
-143.717675
 10
1067.551671
 20
-143.708732
 10
1067.539902
 20
-143.6995399999999
 10
1067.528405
 20
-143.690107
 10
1067.517185
 20
-143.680436
 10
1067.506249999999
 20
-143.6705349999999
 10
1067.495607
 20
-143.660408
 10
1067.485263
 20
-143.6500629999999
 10
1067.475222
 20
-143.639505
 10
1067.465491999999
 20
-143.628741
 10
1067.456077999999
 20
-143.617778
 10
1067.446986999999
 20
-143.6066209999999
 10
1067.438223
 20
-143.5952789999999
 10
1067.429791
 20
-143.583757
 10
1067.421698
 20
-143.5720629999999
 10
1067.413948
 20
-143.560203
 10
1067.406546
 20
-143.548186
 10
1067.399495999999
 20
-143.5360179999999
 10
1067.392801999999
 20
-143.523707
 10
1067.386468
 20
-143.51126
 10
1067.380499
 20
-143.498685
 10
1067.374898
 20
-143.485989
 10
1067.369669
 20
-143.47318
 10
1067.364813
 20
-143.4602659999999
 10
1067.360335999999
 20
-143.447255
 10
1067.356238
 20
-143.434155
 10
1067.352523
 20
-143.420972
 10
1067.349193999999
 20
-143.4077169999999
 10
1067.346251
 20
-143.394396
 10
1067.343697
 20
-143.3810179999999
 10
1067.341533
 20
-143.367591
 10
1067.339761
 20
-143.3541219999999
 10
1067.338381
 20
-143.340621
 10
1067.337395
 20
-143.3270949999999
  0
LWPOLYLINE
  5
836
330
36
100
AcDbEntity
  8
1
  6
CONTINUOUS
 62
     5
100
AcDbPolyline
 90
        4
 70
     1
 43
0.0
 10
1067.336606
 20
-146.250002
 10
1068.636606
 20
-146.250002
 10
1068.636606
 20
-145.150002
 10
1067.336606
 20
-145.150002
  0
LWPOLYLINE
  5
83C
330
36
100
AcDbEntity
  8
1
  6
CONTINUOUS
 62
     5
100
AcDbPolyline
 90
        4
 70
     1
 43
0.0
 10
1067.336606
 20
-147.450002
 10
1068.636606
 20
-147.450002
 10
1068.636606
 20
-146.3500019999999
 10
1067.336606
 20
-146.3500019999999
  0
LWPOLYLINE
  5
842
330
36
100
AcDbEntity
  8
1
  6
CONTINUOUS
 62
     5
100
AcDbPolyline
 90
      255
 70
     1
 43
0.0
 10
1067.336803999999
 20
-142.1135529999999
 10
1067.336606
 20
-142.1000019999999
 10
1067.336803999999
 20
-142.086451
 10
1067.337395
 20
-142.072909
 10
1067.338381
 20
-142.059383
 10
1067.339761
 20
-142.045882
 10
1067.341533
 20
-142.032413
 10
1067.343697
 20
-142.018986
 10
1067.346251
 20
-142.0056079999999
 10
1067.349193999999
 20
-141.992287
 10
1067.352523
 20
-141.9790309999999
 10
1067.356238
 20
-141.9658489999999
 10
1067.360335999999
 20
-141.952749
 10
1067.364813
 20
-141.9397379999999
 10
1067.369669
 20
-141.926824
 10
1067.374898
 20
-141.9140149999999
 10
1067.380499
 20
-141.901319
 10
1067.386468
 20
-141.8887439999999
 10
1067.392801999999
 20
-141.8762969999999
 10
1067.399495999999
 20
-141.863986
 10
1067.406546
 20
-141.8518179999999
 10
1067.413948
 20
-141.8398009999999
 10
1067.421698
 20
-141.8279409999999
 10
1067.429791
 20
-141.816247
 10
1067.438223
 20
-141.8047249999999
 10
1067.446986999999
 20
-141.793383
 10
1067.456077999999
 20
-141.782226
 10
1067.465491999999
 20
-141.7712629999999
 10
1067.475222
 20
-141.760499
 10
1067.485263
 20
-141.7499409999999
 10
1067.495607
 20
-141.739596
 10
1067.506249999999
 20
-141.729469
 10
1067.517185
 20
-141.7195679999999
 10
1067.528405
 20
-141.7098969999999
 10
1067.539902
 20
-141.7004639999999
 10
1067.551671
 20
-141.691272
 10
1067.563704
 20
-141.682329
 10
1067.575994
 20
-141.6736399999999
 10
1067.588533
 20
-141.665209
 10
1067.601314
 20
-141.657042
 10
1067.614328
 20
-141.649145
 10
1067.627569
 20
-141.6415209999999
 10
1067.641028
 20
-141.6341749999999
 10
1067.654696
 20
-141.627112
 10
1067.668566
 20
-141.620336
 10
1067.682628999999
 20
-141.613852
 10
1067.696876
 20
-141.607662
 10
1067.7113
 20
-141.601772
 10
1067.725889999999
 20
-141.596184
 10
1067.740639
 20
-141.590901
 10
1067.755537
 20
-141.585928
 10
1067.770575999999
 20
-141.581267
 10
1067.785744999999
 20
-141.576921
 10
1067.801036999999
 20
-141.572892
 10
1067.816440999999
 20
-141.569184
 10
1067.831948
 20
-141.5657969999999
 10
1067.847549999999
 20
-141.562735
 10
1067.863235999999
 20
-141.5599999999999
 10
1067.878996
 20
-141.557592
 10
1067.894822
 20
-141.5555129999999
 10
1067.910703999999
 20
-141.553765
 10
1067.926632
 20
-141.552348
 10
1067.942596
 20
-141.551264
 10
1067.958586999999
 20
-141.5505129999999
 10
1067.974594999999
 20
-141.5500959999999
 10
1067.99061
 20
-141.550012
 10
1068.006623
 20
-141.5502629999999
 10
1068.022623999999
 20
-141.5508469999999
 10
1068.038601999999
 20
-141.5517649999999
 10
1068.05455
 20
-141.5530149999999
 10
1068.070456
 20
-141.5545969999999
 10
1068.086311
 20
-141.556511
 10
1068.102105
 20
-141.5587549999999
 10
1068.11783
 20
-141.561327
 10
1068.133475
 20
-141.564226
 10
1068.14903
 20
-141.56745
 10
1068.164486999999
 20
-141.570998
 10
1068.179836
 20
-141.5748669999999
 10
1068.195068
 20
-141.579054
 10
1068.210172999999
 20
-141.583558
 10
1068.225141999999
 20
-141.588376
 10
1068.239967
 20
-141.5935039999999
 10
1068.254638
 20
-141.5989399999999
 10
1068.269146
 20
-141.604679
 10
1068.283482
 20
-141.6107199999999
 10
1068.297639
 20
-141.617057
 10
1068.311605999999
 20
-141.6236879999999
 10
1068.325375999999
 20
-141.630608
 10
1068.338941
 20
-141.637813
 10
1068.352291999999
 20
-141.645298
 10
1068.365419999999
 20
-141.65306
 10
1068.378319
 20
-141.661093
 10
1068.39098
 20
-141.6693919999999
 10
1068.403394999999
 20
-141.677953
 10
1068.415557
 20
-141.6867689999999
 10
1068.427459
 20
-141.695837
 10
1068.439093
 20
-141.70515
 10
1068.450453
 20
-141.714703
 10
1068.461531
 20
-141.72449
 10
1068.472319999999
 20
-141.734505
 10
1068.482815
 20
-141.744742
 10
1068.493008999999
 20
-141.7551939999999
 10
1068.502894999999
 20
-141.765856
 10
1068.512467
 20
-141.7767199999999
 10
1068.521721
 20
-141.787781
 10
1068.530649
 20
-141.799031
 10
1068.539247
 20
-141.8104639999999
 10
1068.547509999999
 20
-141.8220729999999
 10
1068.555432
 20
-141.833851
 10
1068.563009
 20
-141.8457899999999
 10
1068.570236
 20
-141.857883
 10
1068.577109
 20
-141.870124
 10
1068.583623
 20
-141.882504
 10
1068.589774
 20
-141.895016
 10
1068.59556
 20
-141.907652
 10
1068.600975999999
 20
-141.920406
 10
1068.606019
 20
-141.9332679999999
 10
1068.610685
 20
-141.946232
 10
1068.614973
 20
-141.9592879999999
 10
1068.61888
 20
-141.972431
 10
1068.622401999999
 20
-141.9856509999999
 10
1068.625539
 20
-141.99894
 10
1068.628286999999
 20
-142.0122899999999
 10
1068.630646999999
 20
-142.0256939999999
 10
1068.632615
 20
-142.039143
 10
1068.634191
 20
-142.0526289999999
 10
1068.635372999999
 20
-142.0661429999999
 10
1068.636162
 20
-142.0796789999999
 10
1068.636557
 20
-142.0932259999999
 10
1068.636557
 20
-142.106778
 10
1068.636162
 20
-142.120325
 10
1068.635372999999
 20
-142.13386
 10
1068.634191
 20
-142.147375
 10
1068.632615
 20
-142.160861
 10
1068.630646999999
 20
-142.17431
 10
1068.628286999999
 20
-142.187714
 10
1068.625539
 20
-142.201064
 10
1068.622401999999
 20
-142.214353
 10
1068.61888
 20
-142.227573
 10
1068.614973
 20
-142.2407159999999
 10
1068.610685
 20
-142.253772
 10
1068.606019
 20
-142.266736
 10
1068.600975999999
 20
-142.2795979999999
 10
1068.59556
 20
-142.2923519999999
 10
1068.589774
 20
-142.3049879999999
 10
1068.583623
 20
-142.3175
 10
1068.577109
 20
-142.3298799999999
 10
1068.570236
 20
-142.3421209999999
 10
1068.563009
 20
-142.3542139999999
 10
1068.555432
 20
-142.3661529999999
 10
1068.547509999999
 20
-142.377931
 10
1068.539247
 20
-142.3895399999999
 10
1068.530649
 20
-142.4009729999999
 10
1068.521721
 20
-142.412223
 10
1068.512467
 20
-142.4232839999999
 10
1068.502894999999
 20
-142.434148
 10
1068.493008999999
 20
-142.44481
 10
1068.482815
 20
-142.455262
 10
1068.472319999999
 20
-142.465499
 10
1068.461531
 20
-142.4755139999999
 10
1068.450453
 20
-142.4853009999999
 10
1068.439093
 20
-142.494854
 10
1068.427459
 20
-142.5041669999999
 10
1068.415557
 20
-142.513235
 10
1068.403394999999
 20
-142.522051
 10
1068.39098
 20
-142.530612
 10
1068.378319
 20
-142.538911
 10
1068.365419999999
 20
-142.546944
 10
1068.352291999999
 20
-142.554706
 10
1068.338941
 20
-142.5621909999999
 10
1068.325375999999
 20
-142.5693959999999
 10
1068.311605999999
 20
-142.5763159999999
 10
1068.297639
 20
-142.5829469999999
 10
1068.283482
 20
-142.589284
 10
1068.269146
 20
-142.595325
 10
1068.254638
 20
-142.6010639999999
 10
1068.239967
 20
-142.6065
 10
1068.225141999999
 20
-142.611628
 10
1068.210172999999
 20
-142.616446
 10
1068.195068
 20
-142.6209499999999
 10
1068.179836
 20
-142.625137
 10
1068.164486999999
 20
-142.629006
 10
1068.14903
 20
-142.632554
 10
1068.133475
 20
-142.635778
 10
1068.11783
 20
-142.638677
 10
1068.102105
 20
-142.6412489999999
 10
1068.086311
 20
-142.643493
 10
1068.070456
 20
-142.645407
 10
1068.05455
 20
-142.6469889999999
 10
1068.038601999999
 20
-142.6482389999999
 10
1068.022623999999
 20
-142.649157
 10
1068.006623
 20
-142.6497409999999
 10
1067.99061
 20
-142.6499919999999
 10
1067.974594999999
 20
-142.649908
 10
1067.958586999999
 20
-142.6494909999999
 10
1067.942596
 20
-142.64874
 10
1067.926632
 20
-142.647656
 10
1067.910703999999
 20
-142.6462389999999
 10
1067.894822
 20
-142.6444909999999
 10
1067.878996
 20
-142.642412
 10
1067.863235999999
 20
-142.640004
 10
1067.847549999999
 20
-142.6372689999999
 10
1067.831948
 20
-142.634207
 10
1067.816440999999
 20
-142.63082
 10
1067.801036999999
 20
-142.627112
 10
1067.785744999999
 20
-142.623083
 10
1067.770575999999
 20
-142.618737
 10
1067.755537
 20
-142.614076
 10
1067.740639
 20
-142.609103
 10
1067.725889999999
 20
-142.6038199999999
 10
1067.7113
 20
-142.5982319999999
 10
1067.696876
 20
-142.5923419999999
 10
1067.682628999999
 20
-142.5861519999999
 10
1067.668566
 20
-142.5796679999999
 10
1067.654696
 20
-142.572892
 10
1067.641028
 20
-142.565829
 10
1067.627569
 20
-142.558483
 10
1067.614328
 20
-142.5508589999999
 10
1067.601314
 20
-142.542961
 10
1067.588533
 20
-142.534795
 10
1067.575994
 20
-142.526364
 10
1067.563704
 20
-142.517675
 10
1067.551671
 20
-142.508732
 10
1067.539902
 20
-142.49954
 10
1067.528405
 20
-142.4901069999999
 10
1067.517185
 20
-142.4804359999999
 10
1067.506249999999
 20
-142.470535
 10
1067.495607
 20
-142.4604079999999
 10
1067.485263
 20
-142.450063
 10
1067.475222
 20
-142.439505
 10
1067.465491999999
 20
-142.4287409999999
 10
1067.456077999999
 20
-142.4177779999999
 10
1067.446986999999
 20
-142.406621
 10
1067.438223
 20
-142.395279
 10
1067.429791
 20
-142.383757
 10
1067.421698
 20
-142.372063
 10
1067.413948
 20
-142.360203
 10
1067.406546
 20
-142.348186
 10
1067.399495999999
 20
-142.3360179999999
 10
1067.392801999999
 20
-142.323707
 10
1067.386468
 20
-142.31126
 10
1067.380499
 20
-142.298685
 10
1067.374898
 20
-142.2859889999999
 10
1067.369669
 20
-142.27318
 10
1067.364813
 20
-142.260266
 10
1067.360335999999
 20
-142.2472549999999
 10
1067.356238
 20
-142.234155
 10
1067.352523
 20
-142.2209719999999
 10
1067.349193999999
 20
-142.207717
 10
1067.346251
 20
-142.1943959999999
 10
1067.343697
 20
-142.181018
 10
1067.341533
 20
-142.1675909999999
 10
1067.339761
 20
-142.1541219999999
 10
1067.338381
 20
-142.140621
 10
1067.337395
 20
-142.127095
  0
ARC
  5
943
330
36
100
AcDbEntity
  8
1
  6
CONTINUOUS
 62
     5
100
AcDbCircle
 10
1066.085464
 20
-152.5
 30
0.0
 40
0.15
100
AcDbArc
 50
119.999999
 51
-119.999999
  0
ARC
  5
944
330
36
100
AcDbEntity
  8
1
  6
CONTINUOUS
 62
     5
100
AcDbCircle
 10
1066.085464
 20
-152.5
 30
0.0
 40
0.15
100
AcDbArc
 50
-60.0
 51
60.0
  0
ARC
  5
945
330
36
100
AcDbEntity
  8
1
  6
CONTINUOUS
 62
     5
100
AcDbCircle
 10
1066.085464
 20
-152.5
 30
0.0
 40
0.85
100
AcDbArc
 50
95.062092
 51
-95.062092
  0
ARC
  5
946
330
36
100
AcDbEntity
  8
1
  6
CONTINUOUS
 62
     5
100
AcDbCircle
 10
1066.085464
 20
-152.5
 30
0.0
 40
0.85
100
AcDbArc
 50
-84.93790600000002
 51
84.93790600000002
  0
ARC
  5
947
330
36
100
AcDbEntity
  8
1
  6
CONTINUOUS
 62
     5
100
AcDbCircle
 10
1066.085464
 20
-152.5
 30
0.0
 40
0.8
100
AcDbArc
 50
95.37937799999999
 51
-95.37937799999999
  0
ARC
  5
948
330
36
100
AcDbEntity
  8
1
  6
CONTINUOUS
 62
     5
100
AcDbCircle
 10
1066.085464
 20
-152.5
 30
0.0
 40
0.8
100
AcDbArc
 50
-84.62062000000001
 51
84.62062000000001
  0
LWPOLYLINE
  5
949
330
36
100
AcDbEntity
  8
1
  6
CONTINUOUS
 62
     5
100
AcDbPolyline
 90
        4
 70
     1
 43
0.0
 10
1066.010464
 20
-153.3899999999999
 10
1066.160463999999
 20
-153.3899999999999
 10
1066.160463999999
 20
-151.61
 10
1066.010464
 20
-151.61
  0
LWPOLYLINE
  5
94F
330
36
100
AcDbEntity
  8
1
  6
CONTINUOUS
 62
     5
100
AcDbPolyline
 90
        4
 70
     1
 43
0.0
 10
1064.885464
 20
-153.3999999999999
 10
1064.885464
 20
-151.6
 10
1067.285464
 20
-151.6
 10
1067.285464
 20
-153.3999999999999
  0
LWPOLYLINE
  5
955
330
36
100
AcDbEntity
  8
1
  6
DOT2
 62
     5
100
AcDbPolyline
 90
        4
 70
     0
 43
0.0
 10
1066.010464
 20
-151.65
 10
1064.935464
 20
-151.65
 10
1064.935464
 20
-153.35
 10
1066.010464
 20
-153.35
  0
LWPOLYLINE
  5
95B
330
36
100
AcDbEntity
  8
1
  6
DOT2
 62
     5
100
AcDbPolyline
 90
        4
 70
     0
 43
0.0
 10
1066.160463999999
 20
-153.35
 10
1067.235464
 20
-153.35
 10
1067.235464
 20
-151.65
 10
1066.160463999999
 20
-151.65
  0
LINE
  5
961
330
36
100
AcDbEntity
  8
1
  6
DASHED
 62
     5
100
AcDbLine
 10
1065.499997999999
 20
-158.0
 30
0.0
 11
1065.499997999999
 21
-156.4999999999999
 31
0.0
  0
LWPOLYLINE
  5
962
330
36
100
AcDbEntity
  8
1
  6
CONTINUOUS
 62
     5
100
AcDbPolyline
 90
        4
 70
     0
 43
0.0
 10
1060.999997999999
 20
-156.4999999999999
 10
1060.999997999999
 20
-158.0
 10
1061.099998
 20
-158.0
 10
1061.099998
 20
-156.4999999999999
  0
LINE
  5
968
330
36
100
AcDbEntity
  8
1
  6
CONTINUOUS
 62
     5
100
AcDbLine
 10
1061.299997999999
 20
-158.0
 30
0.0
 11
1061.299997999999
 21
-156.4999999999999
 31
0.0
  0
LINE
  5
969
330
36
100
AcDbEntity
  8
1
  6
DASHED
 62
     5
100
AcDbLine
 10
1065.499997999999
 20
-158.0
 30
0.0
 11
1065.499997999999
 21
-164.5
 31
0.0
  0
LINE
  5
96A
330
36
100
AcDbEntity
  8
1
  6
DOT2
 62
     5
100
AcDbLine
 10
1058.999997999999
 20
-159.463333
 30
0.0
 11
1058.999997999999
 21
-166.095556
 31
0.0
  0
LWPOLYLINE
  5
96B
330
36
100
AcDbEntity
  8
1
  6
CONTINUOUS
 62
     5
100
AcDbPolyline
 90
        4
 70
     1
 43
0.0
 10
1068.836606
 20
-140.2500019999999
 10
1070.136605999999
 20
-140.2500019999999
 10
1070.136605999999
 20
-139.150002
 10
1068.836606
 20
-139.150002
  0
LWPOLYLINE
  5
971
330
36
100
AcDbEntity
  8
1
  6
CONTINUOUS
 62
     5
100
AcDbPolyline
 90
        4
 70
     1
 43
0.0
 10
1068.836606
 20
-141.450002
 10
1070.136605999999
 20
-141.450002
 10
1070.136605999999
 20
-140.3500019999999
 10
1068.836606
 20
-140.3500019999999
  0
LWPOLYLINE
  5
977
330
36
100
AcDbEntity
  8
1
  6
CONTINUOUS
 62
     5
100
AcDbPolyline
 90
      255
 70
     1
 43
0.0
 10
1068.836803999999
 20
-144.5135529999999
 10
1068.836606
 20
-144.5000019999999
 10
1068.836803999999
 20
-144.4864509999999
 10
1068.837395
 20
-144.472909
 10
1068.838381
 20
-144.459383
 10
1068.839760999999
 20
-144.445882
 10
1068.841533
 20
-144.432413
 10
1068.843696999999
 20
-144.418986
 10
1068.846250999999
 20
-144.405608
 10
1068.849194
 20
-144.392287
 10
1068.852523
 20
-144.3790309999999
 10
1068.856238
 20
-144.3658489999999
 10
1068.860335999999
 20
-144.3527489999999
 10
1068.864813
 20
-144.3397379999999
 10
1068.869668999999
 20
-144.3268239999999
 10
1068.874898
 20
-144.3140149999999
 10
1068.880499
 20
-144.301319
 10
1068.886468
 20
-144.2887439999999
 10
1068.892801999999
 20
-144.2762969999999
 10
1068.899496
 20
-144.263986
 10
1068.906546
 20
-144.2518179999999
 10
1068.913948
 20
-144.2398009999999
 10
1068.921698
 20
-144.2279409999999
 10
1068.929791
 20
-144.216247
 10
1068.938223
 20
-144.2047249999999
 10
1068.946986999999
 20
-144.193383
 10
1068.956078
 20
-144.182226
 10
1068.965492
 20
-144.1712629999999
 10
1068.975222
 20
-144.1604989999999
 10
1068.985263
 20
-144.1499409999999
 10
1068.995607
 20
-144.1395959999999
 10
1069.006249999999
 20
-144.129469
 10
1069.017184999999
 20
-144.1195679999999
 10
1069.028405
 20
-144.1098969999999
 10
1069.039901999999
 20
-144.1004639999999
 10
1069.051671
 20
-144.091272
 10
1069.063703999999
 20
-144.082329
 10
1069.075994
 20
-144.0736399999999
 10
1069.088533
 20
-144.065209
 10
1069.101314
 20
-144.057042
 10
1069.114327999999
 20
-144.0491449999999
 10
1069.127568999999
 20
-144.0415209999999
 10
1069.141027999999
 20
-144.0341749999999
 10
1069.154696
 20
-144.027112
 10
1069.168566
 20
-144.020336
 10
1069.182628999999
 20
-144.013852
 10
1069.196876
 20
-144.007662
 10
1069.211299999999
 20
-144.0017719999999
 10
1069.22589
 20
-143.996184
 10
1069.240638999999
 20
-143.990901
 10
1069.255537
 20
-143.985928
 10
1069.270575999999
 20
-143.981267
 10
1069.285744999999
 20
-143.976921
 10
1069.301037
 20
-143.972892
 10
1069.316441
 20
-143.969184
 10
1069.331948
 20
-143.965797
 10
1069.34755
 20
-143.962735
 10
1069.363235999999
 20
-143.96
 10
1069.378996
 20
-143.957592
 10
1069.394822
 20
-143.955513
 10
1069.410703999999
 20
-143.953765
 10
1069.426631999999
 20
-143.952348
 10
1069.442596
 20
-143.9512639999999
 10
1069.458586999999
 20
-143.950513
 10
1069.474594999999
 20
-143.9500959999999
 10
1069.49061
 20
-143.950012
 10
1069.506623
 20
-143.9502629999999
 10
1069.522623999999
 20
-143.9508469999999
 10
1069.538601999999
 20
-143.9517649999999
 10
1069.55455
 20
-143.9530149999999
 10
1069.570456
 20
-143.954597
 10
1069.586311
 20
-143.956511
 10
1069.602105
 20
-143.9587549999999
 10
1069.61783
 20
-143.961327
 10
1069.633475
 20
-143.964226
 10
1069.64903
 20
-143.96745
 10
1069.664487
 20
-143.970998
 10
1069.679836
 20
-143.9748669999999
 10
1069.695068
 20
-143.9790539999999
 10
1069.710173
 20
-143.983558
 10
1069.725142
 20
-143.9883759999999
 10
1069.739967
 20
-143.9935039999999
 10
1069.754638
 20
-143.9989399999999
 10
1069.769146
 20
-144.004679
 10
1069.783482
 20
-144.0107199999999
 10
1069.797639
 20
-144.017057
 10
1069.811606
 20
-144.023688
 10
1069.825376
 20
-144.030608
 10
1069.838941
 20
-144.037813
 10
1069.852291999999
 20
-144.045298
 10
1069.865419999999
 20
-144.05306
 10
1069.878318999999
 20
-144.061093
 10
1069.89098
 20
-144.069392
 10
1069.903394999999
 20
-144.077953
 10
1069.915557
 20
-144.086769
 10
1069.927459
 20
-144.095837
 10
1069.939093
 20
-144.10515
 10
1069.950452999999
 20
-144.1147029999999
 10
1069.961531
 20
-144.1244899999999
 10
1069.972319999999
 20
-144.134505
 10
1069.982815
 20
-144.1447419999999
 10
1069.993009
 20
-144.1551939999999
 10
1070.002894999999
 20
-144.165856
 10
1070.012467
 20
-144.1767199999999
 10
1070.021721
 20
-144.187781
 10
1070.030649
 20
-144.199031
 10
1070.039247
 20
-144.2104639999999
 10
1070.047509999999
 20
-144.222073
 10
1070.055432
 20
-144.2338509999999
 10
1070.063009
 20
-144.2457899999999
 10
1070.070236
 20
-144.257883
 10
1070.077109
 20
-144.270124
 10
1070.083623
 20
-144.282504
 10
1070.089774
 20
-144.295016
 10
1070.09556
 20
-144.3076519999999
 10
1070.100975999999
 20
-144.320406
 10
1070.106019
 20
-144.333268
 10
1070.110684999999
 20
-144.346232
 10
1070.114972999999
 20
-144.3592879999999
 10
1070.11888
 20
-144.372431
 10
1070.122401999999
 20
-144.3856509999999
 10
1070.125539
 20
-144.3989399999999
 10
1070.128286999999
 20
-144.4122899999999
 10
1070.130647
 20
-144.425694
 10
1070.132615
 20
-144.439143
 10
1070.134191
 20
-144.4526289999999
 10
1070.135373
 20
-144.4661429999999
 10
1070.136162
 20
-144.479679
 10
1070.136557
 20
-144.4932259999999
 10
1070.136557
 20
-144.506778
 10
1070.136162
 20
-144.520325
 10
1070.135373
 20
-144.53386
 10
1070.134191
 20
-144.5473749999999
 10
1070.132615
 20
-144.560861
 10
1070.130647
 20
-144.57431
 10
1070.128286999999
 20
-144.5877139999999
 10
1070.125539
 20
-144.6010639999999
 10
1070.122401999999
 20
-144.614353
 10
1070.11888
 20
-144.6275729999999
 10
1070.114972999999
 20
-144.6407159999999
 10
1070.110684999999
 20
-144.653772
 10
1070.106019
 20
-144.666736
 10
1070.100975999999
 20
-144.679598
 10
1070.09556
 20
-144.692352
 10
1070.089774
 20
-144.7049879999999
 10
1070.083623
 20
-144.7175
 10
1070.077109
 20
-144.72988
 10
1070.070236
 20
-144.7421209999999
 10
1070.063009
 20
-144.7542139999999
 10
1070.055432
 20
-144.7661529999999
 10
1070.047509999999
 20
-144.777931
 10
1070.039247
 20
-144.7895399999999
 10
1070.030649
 20
-144.800973
 10
1070.021721
 20
-144.8122229999999
 10
1070.012467
 20
-144.823284
 10
1070.002894999999
 20
-144.834148
 10
1069.993009
 20
-144.84481
 10
1069.982815
 20
-144.855262
 10
1069.972319999999
 20
-144.865499
 10
1069.961531
 20
-144.8755139999999
 10
1069.950452999999
 20
-144.885301
 10
1069.939093
 20
-144.894854
 10
1069.927459
 20
-144.9041669999999
 10
1069.915557
 20
-144.913235
 10
1069.903394999999
 20
-144.922051
 10
1069.89098
 20
-144.930612
 10
1069.878318999999
 20
-144.938911
 10
1069.865419999999
 20
-144.946944
 10
1069.852291999999
 20
-144.954706
 10
1069.838941
 20
-144.9621909999999
 10
1069.825376
 20
-144.9693959999999
 10
1069.811606
 20
-144.976316
 10
1069.797639
 20
-144.982947
 10
1069.783482
 20
-144.9892839999999
 10
1069.769146
 20
-144.995325
 10
1069.754638
 20
-145.0010639999999
 10
1069.739967
 20
-145.0064999999999
 10
1069.725142
 20
-145.011628
 10
1069.710173
 20
-145.016446
 10
1069.695068
 20
-145.0209499999999
 10
1069.679836
 20
-145.0251369999999
 10
1069.664487
 20
-145.029006
 10
1069.64903
 20
-145.032554
 10
1069.633475
 20
-145.035778
 10
1069.61783
 20
-145.038677
 10
1069.602105
 20
-145.0412489999999
 10
1069.586311
 20
-145.0434929999999
 10
1069.570456
 20
-145.045407
 10
1069.55455
 20
-145.0469889999999
 10
1069.538601999999
 20
-145.0482389999999
 10
1069.522623999999
 20
-145.049157
 10
1069.506623
 20
-145.0497409999999
 10
1069.49061
 20
-145.049992
 10
1069.474594999999
 20
-145.049908
 10
1069.458586999999
 20
-145.0494909999999
 10
1069.442596
 20
-145.0487399999999
 10
1069.426631999999
 20
-145.047656
 10
1069.410703999999
 20
-145.046239
 10
1069.394822
 20
-145.0444909999999
 10
1069.378996
 20
-145.042412
 10
1069.363235999999
 20
-145.040004
 10
1069.34755
 20
-145.0372689999999
 10
1069.331948
 20
-145.034207
 10
1069.316441
 20
-145.03082
 10
1069.301037
 20
-145.027112
 10
1069.285744999999
 20
-145.023083
 10
1069.270575999999
 20
-145.018737
 10
1069.255537
 20
-145.0140759999999
 10
1069.240638999999
 20
-145.009103
 10
1069.22589
 20
-145.0038199999999
 10
1069.211299999999
 20
-144.9982319999999
 10
1069.196876
 20
-144.9923419999999
 10
1069.182628999999
 20
-144.9861519999999
 10
1069.168566
 20
-144.979668
 10
1069.154696
 20
-144.972892
 10
1069.141027999999
 20
-144.965829
 10
1069.127568999999
 20
-144.958483
 10
1069.114327999999
 20
-144.950859
 10
1069.101314
 20
-144.9429609999999
 10
1069.088533
 20
-144.934795
 10
1069.075994
 20
-144.9263639999999
 10
1069.063703999999
 20
-144.917675
 10
1069.051671
 20
-144.908732
 10
1069.039901999999
 20
-144.89954
 10
1069.028405
 20
-144.8901069999999
 10
1069.017184999999
 20
-144.880436
 10
1069.006249999999
 20
-144.870535
 10
1068.995607
 20
-144.860408
 10
1068.985263
 20
-144.8500629999999
 10
1068.975222
 20
-144.839505
 10
1068.965492
 20
-144.8287409999999
 10
1068.956078
 20
-144.8177779999999
 10
1068.946986999999
 20
-144.806621
 10
1068.938223
 20
-144.7952789999999
 10
1068.929791
 20
-144.783757
 10
1068.921698
 20
-144.772063
 10
1068.913948
 20
-144.7602029999999
 10
1068.906546
 20
-144.748186
 10
1068.899496
 20
-144.7360179999999
 10
1068.892801999999
 20
-144.723707
 10
1068.886468
 20
-144.71126
 10
1068.880499
 20
-144.698685
 10
1068.874898
 20
-144.6859889999999
 10
1068.869668999999
 20
-144.67318
 10
1068.864813
 20
-144.6602659999999
 10
1068.860335999999
 20
-144.647255
 10
1068.856238
 20
-144.6341549999999
 10
1068.852523
 20
-144.6209719999999
 10
1068.849194
 20
-144.6077169999999
 10
1068.846250999999
 20
-144.5943959999999
 10
1068.843696999999
 20
-144.581018
 10
1068.841533
 20
-144.567591
 10
1068.839760999999
 20
-144.554122
 10
1068.838381
 20
-144.5406209999999
 10
1068.837395
 20
-144.527095
  0
LWPOLYLINE
  5
A78
330
36
100
AcDbEntity
  8
1
  6
CONTINUOUS
 62
     5
100
AcDbPolyline
 90
      255
 70
     1
 43
0.0
 10
1068.836803999999
 20
-143.313553
 10
1068.836606
 20
-143.300002
 10
1068.836803999999
 20
-143.2864509999999
 10
1068.837395
 20
-143.272909
 10
1068.838381
 20
-143.259383
 10
1068.839760999999
 20
-143.2458819999999
 10
1068.841533
 20
-143.2324129999999
 10
1068.843696999999
 20
-143.218986
 10
1068.846250999999
 20
-143.205608
 10
1068.849194
 20
-143.192287
 10
1068.852523
 20
-143.179031
 10
1068.856238
 20
-143.165849
 10
1068.860335999999
 20
-143.152749
 10
1068.864813
 20
-143.1397379999999
 10
1068.869668999999
 20
-143.126824
 10
1068.874898
 20
-143.114015
 10
1068.880499
 20
-143.1013189999999
 10
1068.886468
 20
-143.088744
 10
1068.892801999999
 20
-143.076297
 10
1068.899496
 20
-143.063986
 10
1068.906546
 20
-143.0518179999999
 10
1068.913948
 20
-143.039801
 10
1068.921698
 20
-143.0279409999999
 10
1068.929791
 20
-143.0162469999999
 10
1068.938223
 20
-143.004725
 10
1068.946986999999
 20
-142.9933829999999
 10
1068.956078
 20
-142.9822259999999
 10
1068.965492
 20
-142.971263
 10
1068.975222
 20
-142.960499
 10
1068.985263
 20
-142.949941
 10
1068.995607
 20
-142.9395959999999
 10
1069.006249999999
 20
-142.9294689999999
 10
1069.017184999999
 20
-142.919568
 10
1069.028405
 20
-142.909897
 10
1069.039901999999
 20
-142.900464
 10
1069.051671
 20
-142.8912719999999
 10
1069.063703999999
 20
-142.8823289999999
 10
1069.075994
 20
-142.87364
 10
1069.088533
 20
-142.865209
 10
1069.101314
 20
-142.8570419999999
 10
1069.114327999999
 20
-142.8491449999999
 10
1069.127568999999
 20
-142.841521
 10
1069.141027999999
 20
-142.8341749999999
 10
1069.154696
 20
-142.8271119999999
 10
1069.168566
 20
-142.8203359999999
 10
1069.182628999999
 20
-142.813852
 10
1069.196876
 20
-142.807662
 10
1069.211299999999
 20
-142.8017719999999
 10
1069.22589
 20
-142.796184
 10
1069.240638999999
 20
-142.790901
 10
1069.255537
 20
-142.785928
 10
1069.270575999999
 20
-142.7812669999999
 10
1069.285744999999
 20
-142.7769209999999
 10
1069.301037
 20
-142.7728919999999
 10
1069.316441
 20
-142.769184
 10
1069.331948
 20
-142.765797
 10
1069.34755
 20
-142.762735
 10
1069.363235999999
 20
-142.7599999999999
 10
1069.378996
 20
-142.7575919999999
 10
1069.394822
 20
-142.7555129999999
 10
1069.410703999999
 20
-142.7537649999999
 10
1069.426631999999
 20
-142.752348
 10
1069.442596
 20
-142.7512639999999
 10
1069.458586999999
 20
-142.7505129999999
 10
1069.474594999999
 20
-142.7500959999999
 10
1069.49061
 20
-142.7500119999999
 10
1069.506623
 20
-142.750263
 10
1069.522623999999
 20
-142.750847
 10
1069.538601999999
 20
-142.7517649999999
 10
1069.55455
 20
-142.753015
 10
1069.570456
 20
-142.7545969999999
 10
1069.586311
 20
-142.756511
 10
1069.602105
 20
-142.758755
 10
1069.61783
 20
-142.7613269999999
 10
1069.633475
 20
-142.764226
 10
1069.64903
 20
-142.76745
 10
1069.664487
 20
-142.7709979999999
 10
1069.679836
 20
-142.7748669999999
 10
1069.695068
 20
-142.7790539999999
 10
1069.710173
 20
-142.7835579999999
 10
1069.725142
 20
-142.788376
 10
1069.739967
 20
-142.793504
 10
1069.754638
 20
-142.7989399999999
 10
1069.769146
 20
-142.8046789999999
 10
1069.783482
 20
-142.81072
 10
1069.797639
 20
-142.8170569999999
 10
1069.811606
 20
-142.8236879999999
 10
1069.825376
 20
-142.830608
 10
1069.838941
 20
-142.8378129999999
 10
1069.852291999999
 20
-142.8452979999999
 10
1069.865419999999
 20
-142.85306
 10
1069.878318999999
 20
-142.8610929999999
 10
1069.89098
 20
-142.869392
 10
1069.903394999999
 20
-142.8779529999999
 10
1069.915557
 20
-142.8867689999999
 10
1069.927459
 20
-142.8958369999999
 10
1069.939093
 20
-142.9051499999999
 10
1069.950452999999
 20
-142.914703
 10
1069.961531
 20
-142.92449
 10
1069.972319999999
 20
-142.934505
 10
1069.982815
 20
-142.9447419999999
 10
1069.993009
 20
-142.955194
 10
1070.002894999999
 20
-142.965856
 10
1070.012467
 20
-142.97672
 10
1070.021721
 20
-142.987781
 10
1070.030649
 20
-142.9990309999999
 10
1070.039247
 20
-143.0104639999999
 10
1070.047509999999
 20
-143.022073
 10
1070.055432
 20
-143.033851
 10
1070.063009
 20
-143.0457899999999
 10
1070.070236
 20
-143.0578829999999
 10
1070.077109
 20
-143.0701239999999
 10
1070.083623
 20
-143.082504
 10
1070.089774
 20
-143.0950159999999
 10
1070.09556
 20
-143.1076519999999
 10
1070.100975999999
 20
-143.1204059999999
 10
1070.106019
 20
-143.1332679999999
 10
1070.110684999999
 20
-143.146232
 10
1070.114972999999
 20
-143.1592879999999
 10
1070.11888
 20
-143.172431
 10
1070.122401999999
 20
-143.185651
 10
1070.125539
 20
-143.1989399999999
 10
1070.128286999999
 20
-143.2122899999999
 10
1070.130647
 20
-143.225694
 10
1070.132615
 20
-143.2391429999999
 10
1070.134191
 20
-143.252629
 10
1070.135373
 20
-143.266143
 10
1070.136162
 20
-143.279679
 10
1070.136557
 20
-143.293226
 10
1070.136557
 20
-143.306778
 10
1070.136162
 20
-143.320325
 10
1070.135373
 20
-143.33386
 10
1070.134191
 20
-143.347375
 10
1070.132615
 20
-143.360861
 10
1070.130647
 20
-143.37431
 10
1070.128286999999
 20
-143.3877139999999
 10
1070.125539
 20
-143.4010639999999
 10
1070.122401999999
 20
-143.414353
 10
1070.11888
 20
-143.4275729999999
 10
1070.114972999999
 20
-143.4407159999999
 10
1070.110684999999
 20
-143.4537719999999
 10
1070.106019
 20
-143.4667359999999
 10
1070.100975999999
 20
-143.479598
 10
1070.09556
 20
-143.492352
 10
1070.089774
 20
-143.504988
 10
1070.083623
 20
-143.5175
 10
1070.077109
 20
-143.5298799999999
 10
1070.070236
 20
-143.542121
 10
1070.063009
 20
-143.554214
 10
1070.055432
 20
-143.566153
 10
1070.047509999999
 20
-143.577931
 10
1070.039247
 20
-143.5895399999999
 10
1070.030649
 20
-143.600973
 10
1070.021721
 20
-143.612223
 10
1070.012467
 20
-143.623284
 10
1070.002894999999
 20
-143.634148
 10
1069.993009
 20
-143.6448099999999
 10
1069.982815
 20
-143.655262
 10
1069.972319999999
 20
-143.665499
 10
1069.961531
 20
-143.6755139999999
 10
1069.950452999999
 20
-143.685301
 10
1069.939093
 20
-143.6948539999999
 10
1069.927459
 20
-143.7041669999999
 10
1069.915557
 20
-143.7132349999999
 10
1069.903394999999
 20
-143.7220509999999
 10
1069.89098
 20
-143.730612
 10
1069.878318999999
 20
-143.7389109999999
 10
1069.865419999999
 20
-143.7469439999999
 10
1069.852291999999
 20
-143.7547059999999
 10
1069.838941
 20
-143.762191
 10
1069.825376
 20
-143.769396
 10
1069.811606
 20
-143.7763159999999
 10
1069.797639
 20
-143.782947
 10
1069.783482
 20
-143.789284
 10
1069.769146
 20
-143.7953249999999
 10
1069.754638
 20
-143.8010639999999
 10
1069.739967
 20
-143.8064999999999
 10
1069.725142
 20
-143.811628
 10
1069.710173
 20
-143.8164459999999
 10
1069.695068
 20
-143.82095
 10
1069.679836
 20
-143.825137
 10
1069.664487
 20
-143.8290059999999
 10
1069.64903
 20
-143.832554
 10
1069.633475
 20
-143.835778
 10
1069.61783
 20
-143.8386769999999
 10
1069.602105
 20
-143.841249
 10
1069.586311
 20
-143.8434929999999
 10
1069.570456
 20
-143.8454069999999
 10
1069.55455
 20
-143.8469889999999
 10
1069.538601999999
 20
-143.8482389999999
 10
1069.522623999999
 20
-143.849157
 10
1069.506623
 20
-143.8497409999999
 10
1069.49061
 20
-143.8499919999999
 10
1069.474594999999
 20
-143.8499079999999
 10
1069.458586999999
 20
-143.849491
 10
1069.442596
 20
-143.8487399999999
 10
1069.426631999999
 20
-143.8476559999999
 10
1069.410703999999
 20
-143.8462389999999
 10
1069.394822
 20
-143.844491
 10
1069.378996
 20
-143.842412
 10
1069.363235999999
 20
-143.8400039999999
 10
1069.34755
 20
-143.837269
 10
1069.331948
 20
-143.834207
 10
1069.316441
 20
-143.8308199999999
 10
1069.301037
 20
-143.827112
 10
1069.285744999999
 20
-143.823083
 10
1069.270575999999
 20
-143.818737
 10
1069.255537
 20
-143.814076
 10
1069.240638999999
 20
-143.809103
 10
1069.22589
 20
-143.80382
 10
1069.211299999999
 20
-143.798232
 10
1069.196876
 20
-143.7923419999999
 10
1069.182628999999
 20
-143.786152
 10
1069.168566
 20
-143.7796679999999
 10
1069.154696
 20
-143.7728919999999
 10
1069.141027999999
 20
-143.7658289999999
 10
1069.127568999999
 20
-143.758483
 10
1069.114327999999
 20
-143.750859
 10
1069.101314
 20
-143.742961
 10
1069.088533
 20
-143.7347949999999
 10
1069.075994
 20
-143.7263639999999
 10
1069.063703999999
 20
-143.717675
 10
1069.051671
 20
-143.708732
 10
1069.039901999999
 20
-143.6995399999999
 10
1069.028405
 20
-143.690107
 10
1069.017184999999
 20
-143.680436
 10
1069.006249999999
 20
-143.6705349999999
 10
1068.995607
 20
-143.660408
 10
1068.985263
 20
-143.6500629999999
 10
1068.975222
 20
-143.639505
 10
1068.965492
 20
-143.628741
 10
1068.956078
 20
-143.617778
 10
1068.946986999999
 20
-143.6066209999999
 10
1068.938223
 20
-143.5952789999999
 10
1068.929791
 20
-143.583757
 10
1068.921698
 20
-143.5720629999999
 10
1068.913948
 20
-143.560203
 10
1068.906546
 20
-143.548186
 10
1068.899496
 20
-143.5360179999999
 10
1068.892801999999
 20
-143.523707
 10
1068.886468
 20
-143.51126
 10
1068.880499
 20
-143.498685
 10
1068.874898
 20
-143.485989
 10
1068.869668999999
 20
-143.47318
 10
1068.864813
 20
-143.4602659999999
 10
1068.860335999999
 20
-143.447255
 10
1068.856238
 20
-143.434155
 10
1068.852523
 20
-143.420972
 10
1068.849194
 20
-143.4077169999999
 10
1068.846250999999
 20
-143.394396
 10
1068.843696999999
 20
-143.3810179999999
 10
1068.841533
 20
-143.367591
 10
1068.839760999999
 20
-143.3541219999999
 10
1068.838381
 20
-143.340621
 10
1068.837395
 20
-143.3270949999999
  0
LWPOLYLINE
  5
B79
330
36
100
AcDbEntity
  8
1
  6
CONTINUOUS
 62
     5
100
AcDbPolyline
 90
      255
 70
     1
 43
0.0
 10
1068.836803999999
 20
-145.7135529999999
 10
1068.836606
 20
-145.700002
 10
1068.836803999999
 20
-145.686451
 10
1068.837395
 20
-145.672909
 10
1068.838381
 20
-145.659383
 10
1068.839760999999
 20
-145.6458819999999
 10
1068.841533
 20
-145.6324129999999
 10
1068.843696999999
 20
-145.618986
 10
1068.846250999999
 20
-145.605608
 10
1068.849194
 20
-145.592287
 10
1068.852523
 20
-145.579031
 10
1068.856238
 20
-145.5658489999999
 10
1068.860335999999
 20
-145.552749
 10
1068.864813
 20
-145.5397379999999
 10
1068.869668999999
 20
-145.526824
 10
1068.874898
 20
-145.514015
 10
1068.880499
 20
-145.501319
 10
1068.886468
 20
-145.488744
 10
1068.892801999999
 20
-145.4762969999999
 10
1068.899496
 20
-145.463986
 10
1068.906546
 20
-145.4518179999999
 10
1068.913948
 20
-145.439801
 10
1068.921698
 20
-145.427941
 10
1068.929791
 20
-145.4162469999999
 10
1068.938223
 20
-145.404725
 10
1068.946986999999
 20
-145.3933829999999
 10
1068.956078
 20
-145.382226
 10
1068.965492
 20
-145.371263
 10
1068.975222
 20
-145.360499
 10
1068.985263
 20
-145.349941
 10
1068.995607
 20
-145.3395959999999
 10
1069.006249999999
 20
-145.3294689999999
 10
1069.017184999999
 20
-145.319568
 10
1069.028405
 20
-145.309897
 10
1069.039901999999
 20
-145.3004639999999
 10
1069.051671
 20
-145.291272
 10
1069.063703999999
 20
-145.2823289999999
 10
1069.075994
 20
-145.27364
 10
1069.088533
 20
-145.2652089999999
 10
1069.101314
 20
-145.2570419999999
 10
1069.114327999999
 20
-145.2491449999999
 10
1069.127568999999
 20
-145.241521
 10
1069.141027999999
 20
-145.2341749999999
 10
1069.154696
 20
-145.2271119999999
 10
1069.168566
 20
-145.220336
 10
1069.182628999999
 20
-145.213852
 10
1069.196876
 20
-145.2076619999999
 10
1069.211299999999
 20
-145.201772
 10
1069.22589
 20
-145.196184
 10
1069.240638999999
 20
-145.190901
 10
1069.255537
 20
-145.1859279999999
 10
1069.270575999999
 20
-145.1812669999999
 10
1069.285744999999
 20
-145.1769209999999
 10
1069.301037
 20
-145.1728919999999
 10
1069.316441
 20
-145.169184
 10
1069.331948
 20
-145.165797
 10
1069.34755
 20
-145.162735
 10
1069.363235999999
 20
-145.16
 10
1069.378996
 20
-145.1575919999999
 10
1069.394822
 20
-145.1555129999999
 10
1069.410703999999
 20
-145.1537649999999
 10
1069.426631999999
 20
-145.1523479999999
 10
1069.442596
 20
-145.1512639999999
 10
1069.458586999999
 20
-145.1505129999999
 10
1069.474594999999
 20
-145.1500959999999
 10
1069.49061
 20
-145.150012
 10
1069.506623
 20
-145.150263
 10
1069.522623999999
 20
-145.150847
 10
1069.538601999999
 20
-145.1517649999999
 10
1069.55455
 20
-145.1530149999999
 10
1069.570456
 20
-145.1545969999999
 10
1069.586311
 20
-145.156511
 10
1069.602105
 20
-145.158755
 10
1069.61783
 20
-145.1613269999999
 10
1069.633475
 20
-145.164226
 10
1069.64903
 20
-145.16745
 10
1069.664487
 20
-145.1709979999999
 10
1069.679836
 20
-145.174867
 10
1069.695068
 20
-145.179054
 10
1069.710173
 20
-145.183558
 10
1069.725142
 20
-145.188376
 10
1069.739967
 20
-145.1935039999999
 10
1069.754638
 20
-145.1989399999999
 10
1069.769146
 20
-145.2046789999999
 10
1069.783482
 20
-145.21072
 10
1069.797639
 20
-145.217057
 10
1069.811606
 20
-145.2236879999999
 10
1069.825376
 20
-145.230608
 10
1069.838941
 20
-145.2378129999999
 10
1069.852291999999
 20
-145.2452979999999
 10
1069.865419999999
 20
-145.25306
 10
1069.878318999999
 20
-145.2610929999999
 10
1069.89098
 20
-145.2693919999999
 10
1069.903394999999
 20
-145.2779529999999
 10
1069.915557
 20
-145.2867689999999
 10
1069.927459
 20
-145.295837
 10
1069.939093
 20
-145.3051499999999
 10
1069.950452999999
 20
-145.314703
 10
1069.961531
 20
-145.32449
 10
1069.972319999999
 20
-145.334505
 10
1069.982815
 20
-145.344742
 10
1069.993009
 20
-145.3551939999999
 10
1070.002894999999
 20
-145.365856
 10
1070.012467
 20
-145.37672
 10
1070.021721
 20
-145.387781
 10
1070.030649
 20
-145.399031
 10
1070.039247
 20
-145.4104639999999
 10
1070.047509999999
 20
-145.422073
 10
1070.055432
 20
-145.433851
 10
1070.063009
 20
-145.4457899999999
 10
1070.070236
 20
-145.457883
 10
1070.077109
 20
-145.470124
 10
1070.083623
 20
-145.482504
 10
1070.089774
 20
-145.4950159999999
 10
1070.09556
 20
-145.507652
 10
1070.100975999999
 20
-145.5204059999999
 10
1070.106019
 20
-145.5332679999999
 10
1070.110684999999
 20
-145.546232
 10
1070.114972999999
 20
-145.5592879999999
 10
1070.11888
 20
-145.5724309999999
 10
1070.122401999999
 20
-145.585651
 10
1070.125539
 20
-145.5989399999999
 10
1070.128286999999
 20
-145.6122899999999
 10
1070.130647
 20
-145.6256939999999
 10
1070.132615
 20
-145.6391429999999
 10
1070.134191
 20
-145.652629
 10
1070.135373
 20
-145.666143
 10
1070.136162
 20
-145.679679
 10
1070.136557
 20
-145.693226
 10
1070.136557
 20
-145.706778
 10
1070.136162
 20
-145.720325
 10
1070.135373
 20
-145.73386
 10
1070.134191
 20
-145.747375
 10
1070.132615
 20
-145.760861
 10
1070.130647
 20
-145.77431
 10
1070.128286999999
 20
-145.7877139999999
 10
1070.125539
 20
-145.8010639999999
 10
1070.122401999999
 20
-145.814353
 10
1070.11888
 20
-145.8275729999999
 10
1070.114972999999
 20
-145.8407159999999
 10
1070.110684999999
 20
-145.8537719999999
 10
1070.106019
 20
-145.8667359999999
 10
1070.100975999999
 20
-145.8795979999999
 10
1070.09556
 20
-145.8923519999999
 10
1070.089774
 20
-145.904988
 10
1070.083623
 20
-145.9174999999999
 10
1070.077109
 20
-145.92988
 10
1070.070236
 20
-145.9421209999999
 10
1070.063009
 20
-145.9542139999999
 10
1070.055432
 20
-145.9661529999999
 10
1070.047509999999
 20
-145.977931
 10
1070.039247
 20
-145.9895399999999
 10
1070.030649
 20
-146.0009729999999
 10
1070.021721
 20
-146.012223
 10
1070.012467
 20
-146.023284
 10
1070.002894999999
 20
-146.0341479999999
 10
1069.993009
 20
-146.04481
 10
1069.982815
 20
-146.055262
 10
1069.972319999999
 20
-146.0654989999999
 10
1069.961531
 20
-146.075514
 10
1069.950452999999
 20
-146.0853009999999
 10
1069.939093
 20
-146.0948539999999
 10
1069.927459
 20
-146.104167
 10
1069.915557
 20
-146.1132349999999
 10
1069.903394999999
 20
-146.1220509999999
 10
1069.89098
 20
-146.130612
 10
1069.878318999999
 20
-146.138911
 10
1069.865419999999
 20
-146.1469439999999
 10
1069.852291999999
 20
-146.154706
 10
1069.838941
 20
-146.1621909999999
 10
1069.825376
 20
-146.169396
 10
1069.811606
 20
-146.1763159999999
 10
1069.797639
 20
-146.1829469999999
 10
1069.783482
 20
-146.189284
 10
1069.769146
 20
-146.195325
 10
1069.754638
 20
-146.201064
 10
1069.739967
 20
-146.2065
 10
1069.725142
 20
-146.2116279999999
 10
1069.710173
 20
-146.2164459999999
 10
1069.695068
 20
-146.2209499999999
 10
1069.679836
 20
-146.225137
 10
1069.664487
 20
-146.2290059999999
 10
1069.64903
 20
-146.2325539999999
 10
1069.633475
 20
-146.235778
 10
1069.61783
 20
-146.2386769999999
 10
1069.602105
 20
-146.241249
 10
1069.586311
 20
-146.243493
 10
1069.570456
 20
-146.2454069999999
 10
1069.55455
 20
-146.2469889999999
 10
1069.538601999999
 20
-146.2482389999999
 10
1069.522623999999
 20
-146.249157
 10
1069.506623
 20
-146.249741
 10
1069.49061
 20
-146.2499919999999
 10
1069.474594999999
 20
-146.249908
 10
1069.458586999999
 20
-146.2494909999999
 10
1069.442596
 20
-146.24874
 10
1069.426631999999
 20
-146.2476559999999
 10
1069.410703999999
 20
-146.2462389999999
 10
1069.394822
 20
-146.2444909999999
 10
1069.378996
 20
-146.242412
 10
1069.363235999999
 20
-146.240004
 10
1069.34755
 20
-146.237269
 10
1069.331948
 20
-146.234207
 10
1069.316441
 20
-146.23082
 10
1069.301037
 20
-146.227112
 10
1069.285744999999
 20
-146.223083
 10
1069.270575999999
 20
-146.218737
 10
1069.255537
 20
-146.214076
 10
1069.240638999999
 20
-146.209103
 10
1069.22589
 20
-146.20382
 10
1069.211299999999
 20
-146.198232
 10
1069.196876
 20
-146.1923419999999
 10
1069.182628999999
 20
-146.186152
 10
1069.168566
 20
-146.1796679999999
 10
1069.154696
 20
-146.1728919999999
 10
1069.141027999999
 20
-146.165829
 10
1069.127568999999
 20
-146.158483
 10
1069.114327999999
 20
-146.150859
 10
1069.101314
 20
-146.142961
 10
1069.088533
 20
-146.1347949999999
 10
1069.075994
 20
-146.126364
 10
1069.063703999999
 20
-146.1176749999999
 10
1069.051671
 20
-146.108732
 10
1069.039901999999
 20
-146.0995399999999
 10
1069.028405
 20
-146.090107
 10
1069.017184999999
 20
-146.080436
 10
1069.006249999999
 20
-146.070535
 10
1068.995607
 20
-146.0604079999999
 10
1068.985263
 20
-146.050063
 10
1068.975222
 20
-146.0395049999999
 10
1068.965492
 20
-146.028741
 10
1068.956078
 20
-146.0177779999999
 10
1068.946986999999
 20
-146.0066209999999
 10
1068.938223
 20
-145.995279
 10
1068.929791
 20
-145.9837569999999
 10
1068.921698
 20
-145.9720629999999
 10
1068.913948
 20
-145.960203
 10
1068.906546
 20
-145.948186
 10
1068.899496
 20
-145.936018
 10
1068.892801999999
 20
-145.923707
 10
1068.886468
 20
-145.91126
 10
1068.880499
 20
-145.898685
 10
1068.874898
 20
-145.885989
 10
1068.869668999999
 20
-145.8731799999999
 10
1068.864813
 20
-145.8602659999999
 10
1068.860335999999
 20
-145.847255
 10
1068.856238
 20
-145.834155
 10
1068.852523
 20
-145.8209719999999
 10
1068.849194
 20
-145.8077169999999
 10
1068.846250999999
 20
-145.794396
 10
1068.843696999999
 20
-145.7810179999999
 10
1068.841533
 20
-145.7675909999999
 10
1068.839760999999
 20
-145.7541219999999
 10
1068.838381
 20
-145.740621
 10
1068.837395
 20
-145.7270949999999
  0
LWPOLYLINE
  5
C7A
330
36
100
AcDbEntity
  8
1
  6
CONTINUOUS
 62
     5
100
AcDbPolyline
 90
        4
 70
     1
 43
0.0
 10
1068.836606
 20
-147.450002
 10
1070.136605999999
 20
-147.450002
 10
1070.136605999999
 20
-146.3500019999999
 10
1068.836606
 20
-146.3500019999999
  0
LWPOLYLINE
  5
C80
330
36
100
AcDbEntity
  8
1
  6
CONTINUOUS
 62
     5
100
AcDbPolyline
 90
      255
 70
     1
 43
0.0
 10
1068.836803999999
 20
-142.1135529999999
 10
1068.836606
 20
-142.1000019999999
 10
1068.836803999999
 20
-142.086451
 10
1068.837395
 20
-142.072909
 10
1068.838381
 20
-142.059383
 10
1068.839760999999
 20
-142.045882
 10
1068.841533
 20
-142.032413
 10
1068.843696999999
 20
-142.018986
 10
1068.846250999999
 20
-142.0056079999999
 10
1068.849194
 20
-141.992287
 10
1068.852523
 20
-141.9790309999999
 10
1068.856238
 20
-141.9658489999999
 10
1068.860335999999
 20
-141.952749
 10
1068.864813
 20
-141.9397379999999
 10
1068.869668999999
 20
-141.926824
 10
1068.874898
 20
-141.9140149999999
 10
1068.880499
 20
-141.901319
 10
1068.886468
 20
-141.8887439999999
 10
1068.892801999999
 20
-141.8762969999999
 10
1068.899496
 20
-141.863986
 10
1068.906546
 20
-141.8518179999999
 10
1068.913948
 20
-141.8398009999999
 10
1068.921698
 20
-141.8279409999999
 10
1068.929791
 20
-141.816247
 10
1068.938223
 20
-141.8047249999999
 10
1068.946986999999
 20
-141.793383
 10
1068.956078
 20
-141.782226
 10
1068.965492
 20
-141.7712629999999
 10
1068.975222
 20
-141.760499
 10
1068.985263
 20
-141.7499409999999
 10
1068.995607
 20
-141.739596
 10
1069.006249999999
 20
-141.729469
 10
1069.017184999999
 20
-141.7195679999999
 10
1069.028405
 20
-141.7098969999999
 10
1069.039901999999
 20
-141.7004639999999
 10
1069.051671
 20
-141.691272
 10
1069.063703999999
 20
-141.682329
 10
1069.075994
 20
-141.6736399999999
 10
1069.088533
 20
-141.665209
 10
1069.101314
 20
-141.657042
 10
1069.114327999999
 20
-141.649145
 10
1069.127568999999
 20
-141.6415209999999
 10
1069.141027999999
 20
-141.6341749999999
 10
1069.154696
 20
-141.627112
 10
1069.168566
 20
-141.620336
 10
1069.182628999999
 20
-141.613852
 10
1069.196876
 20
-141.607662
 10
1069.211299999999
 20
-141.601772
 10
1069.22589
 20
-141.596184
 10
1069.240638999999
 20
-141.590901
 10
1069.255537
 20
-141.585928
 10
1069.270575999999
 20
-141.581267
 10
1069.285744999999
 20
-141.576921
 10
1069.301037
 20
-141.572892
 10
1069.316441
 20
-141.569184
 10
1069.331948
 20
-141.5657969999999
 10
1069.34755
 20
-141.562735
 10
1069.363235999999
 20
-141.5599999999999
 10
1069.378996
 20
-141.557592
 10
1069.394822
 20
-141.5555129999999
 10
1069.410703999999
 20
-141.553765
 10
1069.426631999999
 20
-141.552348
 10
1069.442596
 20
-141.551264
 10
1069.458586999999
 20
-141.5505129999999
 10
1069.474594999999
 20
-141.5500959999999
 10
1069.49061
 20
-141.550012
 10
1069.506623
 20
-141.5502629999999
 10
1069.522623999999
 20
-141.5508469999999
 10
1069.538601999999
 20
-141.5517649999999
 10
1069.55455
 20
-141.5530149999999
 10
1069.570456
 20
-141.5545969999999
 10
1069.586311
 20
-141.556511
 10
1069.602105
 20
-141.5587549999999
 10
1069.61783
 20
-141.561327
 10
1069.633475
 20
-141.564226
 10
1069.64903
 20
-141.56745
 10
1069.664487
 20
-141.570998
 10
1069.679836
 20
-141.5748669999999
 10
1069.695068
 20
-141.579054
 10
1069.710173
 20
-141.583558
 10
1069.725142
 20
-141.588376
 10
1069.739967
 20
-141.5935039999999
 10
1069.754638
 20
-141.5989399999999
 10
1069.769146
 20
-141.604679
 10
1069.783482
 20
-141.6107199999999
 10
1069.797639
 20
-141.617057
 10
1069.811606
 20
-141.6236879999999
 10
1069.825376
 20
-141.630608
 10
1069.838941
 20
-141.637813
 10
1069.852291999999
 20
-141.645298
 10
1069.865419999999
 20
-141.65306
 10
1069.878318999999
 20
-141.661093
 10
1069.89098
 20
-141.6693919999999
 10
1069.903394999999
 20
-141.677953
 10
1069.915557
 20
-141.6867689999999
 10
1069.927459
 20
-141.695837
 10
1069.939093
 20
-141.70515
 10
1069.950452999999
 20
-141.714703
 10
1069.961531
 20
-141.72449
 10
1069.972319999999
 20
-141.734505
 10
1069.982815
 20
-141.744742
 10
1069.993009
 20
-141.7551939999999
 10
1070.002894999999
 20
-141.765856
 10
1070.012467
 20
-141.7767199999999
 10
1070.021721
 20
-141.787781
 10
1070.030649
 20
-141.799031
 10
1070.039247
 20
-141.8104639999999
 10
1070.047509999999
 20
-141.8220729999999
 10
1070.055432
 20
-141.833851
 10
1070.063009
 20
-141.8457899999999
 10
1070.070236
 20
-141.857883
 10
1070.077109
 20
-141.870124
 10
1070.083623
 20
-141.882504
 10
1070.089774
 20
-141.895016
 10
1070.09556
 20
-141.907652
 10
1070.100975999999
 20
-141.920406
 10
1070.106019
 20
-141.9332679999999
 10
1070.110684999999
 20
-141.946232
 10
1070.114972999999
 20
-141.9592879999999
 10
1070.11888
 20
-141.972431
 10
1070.122401999999
 20
-141.9856509999999
 10
1070.125539
 20
-141.99894
 10
1070.128286999999
 20
-142.0122899999999
 10
1070.130647
 20
-142.0256939999999
 10
1070.132615
 20
-142.039143
 10
1070.134191
 20
-142.0526289999999
 10
1070.135373
 20
-142.0661429999999
 10
1070.136162
 20
-142.0796789999999
 10
1070.136557
 20
-142.0932259999999
 10
1070.136557
 20
-142.106778
 10
1070.136162
 20
-142.120325
 10
1070.135373
 20
-142.13386
 10
1070.134191
 20
-142.147375
 10
1070.132615
 20
-142.160861
 10
1070.130647
 20
-142.17431
 10
1070.128286999999
 20
-142.187714
 10
1070.125539
 20
-142.201064
 10
1070.122401999999
 20
-142.214353
 10
1070.11888
 20
-142.227573
 10
1070.114972999999
 20
-142.2407159999999
 10
1070.110684999999
 20
-142.253772
 10
1070.106019
 20
-142.266736
 10
1070.100975999999
 20
-142.2795979999999
 10
1070.09556
 20
-142.2923519999999
 10
1070.089774
 20
-142.3049879999999
 10
1070.083623
 20
-142.3175
 10
1070.077109
 20
-142.3298799999999
 10
1070.070236
 20
-142.3421209999999
 10
1070.063009
 20
-142.3542139999999
 10
1070.055432
 20
-142.3661529999999
 10
1070.047509999999
 20
-142.377931
 10
1070.039247
 20
-142.3895399999999
 10
1070.030649
 20
-142.4009729999999
 10
1070.021721
 20
-142.412223
 10
1070.012467
 20
-142.4232839999999
 10
1070.002894999999
 20
-142.434148
 10
1069.993009
 20
-142.44481
 10
1069.982815
 20
-142.455262
 10
1069.972319999999
 20
-142.465499
 10
1069.961531
 20
-142.4755139999999
 10
1069.950452999999
 20
-142.4853009999999
 10
1069.939093
 20
-142.494854
 10
1069.927459
 20
-142.5041669999999
 10
1069.915557
 20
-142.513235
 10
1069.903394999999
 20
-142.522051
 10
1069.89098
 20
-142.530612
 10
1069.878318999999
 20
-142.538911
 10
1069.865419999999
 20
-142.546944
 10
1069.852291999999
 20
-142.554706
 10
1069.838941
 20
-142.5621909999999
 10
1069.825376
 20
-142.5693959999999
 10
1069.811606
 20
-142.5763159999999
 10
1069.797639
 20
-142.5829469999999
 10
1069.783482
 20
-142.589284
 10
1069.769146
 20
-142.595325
 10
1069.754638
 20
-142.6010639999999
 10
1069.739967
 20
-142.6065
 10
1069.725142
 20
-142.611628
 10
1069.710173
 20
-142.616446
 10
1069.695068
 20
-142.6209499999999
 10
1069.679836
 20
-142.625137
 10
1069.664487
 20
-142.629006
 10
1069.64903
 20
-142.632554
 10
1069.633475
 20
-142.635778
 10
1069.61783
 20
-142.638677
 10
1069.602105
 20
-142.6412489999999
 10
1069.586311
 20
-142.643493
 10
1069.570456
 20
-142.645407
 10
1069.55455
 20
-142.6469889999999
 10
1069.538601999999
 20
-142.6482389999999
 10
1069.522623999999
 20
-142.649157
 10
1069.506623
 20
-142.6497409999999
 10
1069.49061
 20
-142.6499919999999
 10
1069.474594999999
 20
-142.649908
 10
1069.458586999999
 20
-142.6494909999999
 10
1069.442596
 20
-142.64874
 10
1069.426631999999
 20
-142.647656
 10
1069.410703999999
 20
-142.6462389999999
 10
1069.394822
 20
-142.6444909999999
 10
1069.378996
 20
-142.642412
 10
1069.363235999999
 20
-142.640004
 10
1069.34755
 20
-142.6372689999999
 10
1069.331948
 20
-142.634207
 10
1069.316441
 20
-142.63082
 10
1069.301037
 20
-142.627112
 10
1069.285744999999
 20
-142.623083
 10
1069.270575999999
 20
-142.618737
 10
1069.255537
 20
-142.614076
 10
1069.240638999999
 20
-142.609103
 10
1069.22589
 20
-142.6038199999999
 10
1069.211299999999
 20
-142.5982319999999
 10
1069.196876
 20
-142.5923419999999
 10
1069.182628999999
 20
-142.5861519999999
 10
1069.168566
 20
-142.5796679999999
 10
1069.154696
 20
-142.572892
 10
1069.141027999999
 20
-142.565829
 10
1069.127568999999
 20
-142.558483
 10
1069.114327999999
 20
-142.5508589999999
 10
1069.101314
 20
-142.542961
 10
1069.088533
 20
-142.534795
 10
1069.075994
 20
-142.526364
 10
1069.063703999999
 20
-142.517675
 10
1069.051671
 20
-142.508732
 10
1069.039901999999
 20
-142.49954
 10
1069.028405
 20
-142.4901069999999
 10
1069.017184999999
 20
-142.4804359999999
 10
1069.006249999999
 20
-142.470535
 10
1068.995607
 20
-142.4604079999999
 10
1068.985263
 20
-142.450063
 10
1068.975222
 20
-142.439505
 10
1068.965492
 20
-142.4287409999999
 10
1068.956078
 20
-142.4177779999999
 10
1068.946986999999
 20
-142.406621
 10
1068.938223
 20
-142.395279
 10
1068.929791
 20
-142.383757
 10
1068.921698
 20
-142.372063
 10
1068.913948
 20
-142.360203
 10
1068.906546
 20
-142.348186
 10
1068.899496
 20
-142.3360179999999
 10
1068.892801999999
 20
-142.323707
 10
1068.886468
 20
-142.31126
 10
1068.880499
 20
-142.298685
 10
1068.874898
 20
-142.2859889999999
 10
1068.869668999999
 20
-142.27318
 10
1068.864813
 20
-142.260266
 10
1068.860335999999
 20
-142.2472549999999
 10
1068.856238
 20
-142.234155
 10
1068.852523
 20
-142.2209719999999
 10
1068.849194
 20
-142.207717
 10
1068.846250999999
 20
-142.1943959999999
 10
1068.843696999999
 20
-142.181018
 10
1068.841533
 20
-142.1675909999999
 10
1068.839760999999
 20
-142.1541219999999
 10
1068.838381
 20
-142.140621
 10
1068.837395
 20
-142.127095
  0
LWPOLYLINE
  5
D81
330
36
100
AcDbEntity
  8
1
  6
CONTINUOUS
 62
     5
100
AcDbPolyline
 90
        6
 70
     1
 43
0.0
 10
1069.599998
 20
-161.5
 10
1069.399998
 20
-161.3
 10
1069.399998
 20
-161.0
 10
1072.599998
 20
-161.0
 10
1072.599998
 20
-161.3
 10
1072.399998
 20
-161.5
  0
LWPOLYLINE
  5
D89
330
36
100
AcDbEntity
  8
1
  6
CONTINUOUS
 62
     5
100
AcDbPolyline
 90
        6
 70
     1
 43
0.0
 10
1072.399998
 20
-161.5
 10
1072.599998
 20
-161.3
 10
1072.599998
 20
-161.0
 10
1069.399998
 20
-161.0
 10
1069.399998
 20
-161.3
 10
1069.599998
 20
-161.5
  0
LWPOLYLINE
  5
D91
330
36
100
AcDbEntity
  8
1
  6
CONTINUOUS
 62
     5
100
AcDbPolyline
 90
        6
 70
     1
 43
0.0
 10
1067.749998
 20
-160.7
 10
1067.749998
 20
-160.0
 10
1074.249997999999
 20
-160.0
 10
1074.249997999999
 20
-160.7
 10
1073.949998
 20
-161.0
 10
1068.049998
 20
-161.0
  0
LWPOLYLINE
  5
D99
330
36
100
AcDbEntity
  8
1
  6
CONTINUOUS
 62
     5
100
AcDbPolyline
 90
        6
 70
     1
 43
0.0
 10
1074.249997999999
 20
-160.7
 10
1074.249997999999
 20
-160.0
 10
1067.749998
 20
-160.0
 10
1067.749998
 20
-160.7
 10
1068.049998
 20
-161.0
 10
1073.949998
 20
-161.0
  0
LINE
  5
DA1
330
36
100
AcDbEntity
  8
1
  6
DOT2
 62
     5
100
AcDbLine
 10
1067.749998
 20
-160.0
 30
0.0
 11
1074.249997999999
 21
-160.0
 31
0.0
  0
LWPOLYLINE
  5
DA2
330
36
100
AcDbEntity
  8
1
  6
CONTINUOUS
 62
     5
100
AcDbPolyline
 90
        4
 70
     1
 43
0.0
 10
1074.249997999999
 20
-160.0
 10
1067.749998
 20
-160.0
 10
1067.749998
 20
-157.5
 10
1074.249997999999
 20
-157.5
  0
LWPOLYLINE
  5
DA8
330
36
100
AcDbEntity
  8
1
  6
CONTINUOUS
 62
     5
100
AcDbPolyline
 90
        4
 70
     1
 43
0.0
 10
1067.749998
 20
-160.0
 10
1074.249997999999
 20
-160.0
 10
1074.249997999999
 20
-157.5
 10
1067.749998
 20
-157.5
  0
LWPOLYLINE
  5
DAE
330
36
100
AcDbEntity
  8
1
  6
CONTINUOUS
 62
     5
100
AcDbPolyline
 90
        6
 70
     1
 43
0.0
 10
1066.099998
 20
-157.5
 10
1065.999998
 20
-157.4
 10
1065.999998
 20
-156.4999999999999
 10
1075.999998
 20
-156.4999999999999
 10
1075.999998
 20
-157.4
 10
1075.899998
 20
-157.5
  0
LWPOLYLINE
  5
DB6
330
36
100
AcDbEntity
  8
1
  6
CONTINUOUS
 62
     5
100
AcDbPolyline
 90
       16
 70
     0
 43
0.0
 10
1061.299997999999
 20
-158.0
 10
1061.299997999999
 20
-158.0
 10
1061.299997999999
 20
-161.5
 10
1057.199998
 20
-161.5
 10
1056.999997999999
 20
-161.6999999999999
 10
1056.999997999999
 20
-164.5
 10
1065.499997999999
 20
-164.5
 10
1065.499997999999
 20
-164.3
 10
1076.499998
 20
-164.3
 10
1076.499998
 20
-164.5
 10
1084.999998
 20
-164.5
 10
1084.999998
 20
-161.6999999999999
 10
1084.799998
 20
-161.5
 10
1080.699998
 20
-161.5
 10
1080.699998
 20
-158.0
 10
1080.699998
 20
-158.0
  0
ARC
  5
DC8
330
36
100
AcDbEntity
  8
1
  6
CONTINUOUS
 62
     5
100
AcDbCircle
 10
1061.999998
 20
-155.4999999999999
 30
0.0
 40
1.0
100
AcDbArc
 50
89.999999
 51
179.999998
  0
LINE
  5
DC9
330
36
100
AcDbEntity
  8
1
  6
CONTINUOUS
 62
     5
100
AcDbLine
 10
1061.999998
 20
-154.4999999999999
 30
0.0
 11
1079.999998
 21
-154.4999999999999
 31
0.0
  0
ARC
  5
DCA
330
36
100
AcDbEntity
  8
1
  6
CONTINUOUS
 62
     5
100
AcDbCircle
 10
1079.999998
 20
-155.4999999999999
 30
0.0
 40
1.0
100
AcDbArc
 50
0.0
 51
89.999999
  0
LWPOLYLINE
  5
DCB
330
36
100
AcDbEntity
  8
1
  6
CONTINUOUS
 62
     5
100
AcDbPolyline
 90
        4
 70
     1
 43
0.0
 10
1073.336606
 20
-139.050002
 10
1074.636606
 20
-139.050002
 10
1074.636606
 20
-137.950002
 10
1073.336606
 20
-137.950002
  0
LWPOLYLINE
  5
DD1
330
36
100
AcDbEntity
  8
1
  6
CONTINUOUS
 62
     5
100
AcDbPolyline
 90
        4
 70
     1
 43
0.0
 10
1067.336606
 20
-139.050002
 10
1068.636606
 20
-139.050002
 10
1068.636606
 20
-137.950002
 10
1067.336606
 20
-137.950002
  0
ARC
  5
DD7
330
36
100
AcDbEntity
  8
1
  6
CONTINUOUS
 62
     5
100
AcDbCircle
 10
1077.499998
 20
-149.0
 30
0.0
 40
0.5
100
AcDbArc
 50
-89.999999
 51
0.0
  0
LINE
  5
DD8
330
36
100
AcDbEntity
  8
1
  6
CONTINUOUS
 62
     5
100
AcDbLine
 10
1077.999997999999
 20
-149.0
 30
0.0
 11
1077.999997999999
 21
-125.5
 31
0.0
  0
ARC
  5
DD9
330
36
100
AcDbEntity
  8
1
  6
CONTINUOUS
 62
     5
100
AcDbCircle
 10
1077.499998
 20
-125.5
 30
0.0
 40
0.5
100
AcDbArc
 50
0.0
 51
89.999999
  0
LINE
  5
DDA
330
36
100
AcDbEntity
  8
1
  6
CONTINUOUS
 62
     5
100
AcDbLine
 10
1077.499998
 20
-125.0
 30
0.0
 11
1064.499998
 21
-125.0
 31
0.0
  0
ARC
  5
DDB
330
36
100
AcDbEntity
  8
1
  6
CONTINUOUS
 62
     5
100
AcDbCircle
 10
1064.499998
 20
-125.5
 30
0.0
 40
0.5
100
AcDbArc
 50
89.999999
 51
179.999998
  0
LINE
  5
DDC
330
36
100
AcDbEntity
  8
1
  6
CONTINUOUS
 62
     5
100
AcDbLine
 10
1063.999998
 20
-125.5
 30
0.0
 11
1063.999998
 21
-149.0
 31
0.0
  0
ARC
  5
DDD
330
36
100
AcDbEntity
  8
1
  6
CONTINUOUS
 62
     5
100
AcDbCircle
 10
1064.499998
 20
-149.0
 30
0.0
 40
0.5
100
AcDbArc
 50
179.999998
 51
-89.999999
  0
LINE
  5
DDE
330
36
100
AcDbEntity
  8
1
  6
CONTINUOUS
 62
     5
100
AcDbLine
 10
1064.499998
 20
-149.5
 30
0.0
 11
1077.499998
 21
-149.5
 31
0.0
  0
ARC
  5
DDF
330
36
100
AcDbEntity
  8
1
  6
DIVIDE
 62
     5
100
AcDbCircle
 10
1077.486606
 20
-149.0
 30
0.0
 40
0.5
100
AcDbArc
 50
-89.999999
 51
0.0
  0
LINE
  5
DE0
330
36
100
AcDbEntity
  8
1
  6
DIVIDE
 62
     5
100
AcDbLine
 10
1077.986606
 20
-149.0
 30
0.0
 11
1077.986606
 21
-125.5
 31
0.0
  0
ARC
  5
DE1
330
36
100
AcDbEntity
  8
1
  6
DIVIDE
 62
     5
100
AcDbCircle
 10
1077.486606
 20
-125.5
 30
0.0
 40
0.5
100
AcDbArc
 50
0.0
 51
89.999999
  0
LINE
  5
DE2
330
36
100
AcDbEntity
  8
1
  6
DIVIDE
 62
     5
100
AcDbLine
 10
1077.486606
 20
-125.0
 30
0.0
 11
1064.486606
 21
-125.0
 31
0.0
  0
ARC
  5
DE3
330
36
100
AcDbEntity
  8
1
  6
DIVIDE
 62
     5
100
AcDbCircle
 10
1064.486606
 20
-125.5
 30
0.0
 40
0.5
100
AcDbArc
 50
89.999999
 51
179.999998
  0
LINE
  5
DE4
330
36
100
AcDbEntity
  8
1
  6
DIVIDE
 62
     5
100
AcDbLine
 10
1063.986606
 20
-125.5
 30
0.0
 11
1063.986606
 21
-149.0
 31
0.0
  0
ARC
  5
DE5
330
36
100
AcDbEntity
  8
1
  6
DIVIDE
 62
     5
100
AcDbCircle
 10
1064.486606
 20
-149.0
 30
0.0
 40
0.5
100
AcDbArc
 50
179.999998
 51
-89.999999
  0
LINE
  5
DE6
330
36
100
AcDbEntity
  8
1
  6
DIVIDE
 62
     5
100
AcDbLine
 10
1064.486606
 20
-149.5
 30
0.0
 11
1077.486606
 21
-149.5
 31
0.0
  0
LINE
  5
DE7
330
36
100
AcDbEntity
  8
1
  6
DOT2
 62
     5
100
AcDbLine
 10
1070.999998
 20
-113.0
 30
0.0
 11
1070.999998
 21
-167.3068879999999
 31
0.0
  0
LWPOLYLINE
  5
DE8
330
36
100
AcDbEntity
  8
1
  6
CONTINUOUS
 62
     5
100
AcDbPolyline
 90
        4
 70
     1
 43
0.0
 10
1060.999997999999
 20
-156.4999999999999
 10
1060.999997999999
 20
-120.1
 10
1080.999998
 20
-120.1
 10
1080.999998
 20
-156.4999999999999
  0
LWPOLYLINE
  5
DEE
330
36
100
AcDbEntity
  8
1
  6
CONTINUOUS
 62
     5
100
AcDbPolyline
 90
      101
 70
     1
 43
0.0
 10
1175.287649
 20
-224.2203049999999
 10
1175.354327999999
 20
-224.2581209999999
 10
1175.416126
 20
-224.297956
 10
1175.472800999999
 20
-224.3396529999999
 10
1175.524126999999
 20
-224.383047
 10
1175.569902
 20
-224.427966
 10
1175.609946
 20
-224.474234
 10
1175.6441
 20
-224.5216679999999
 10
1175.67223
 20
-224.570081
 10
1175.694226
 20
-224.619281
 10
1175.709998999999
 20
-224.669074
 10
1175.719487
 20
-224.7192649999999
 10
1175.722655
 20
-224.769654
 10
1175.719487
 20
-224.820044
 10
1175.709998999999
 20
-224.8702339999999
 10
1175.694226
 20
-224.9200279999999
 10
1175.67223
 20
-224.969228
 10
1175.6441
 20
-225.017641
 10
1175.609946
 20
-225.065075
 10
1175.569902
 20
-225.111343
 10
1175.524126999999
 20
-225.156262
 10
1175.472800999999
 20
-225.199656
 10
1175.416126
 20
-225.2413529999999
 10
1175.354327999999
 20
-225.2811879999999
 10
1175.287649
 20
-225.319004
 10
1175.216352
 20
-225.3546519999999
 10
1175.140719
 20
-225.387992
 10
1175.061048999999
 20
-225.4188909999999
 10
1174.977656
 20
-225.4472279999999
 10
1174.890868
 20
-225.472891
 10
1174.801028999999
 20
-225.495779
 10
1174.708492999999
 20
-225.5158009999999
 10
1174.613625999999
 20
-225.5328779999999
 10
1174.516800999999
 20
-225.546943
 10
1174.4184
 20
-225.557941
 10
1174.318813
 20
-225.565827
 10
1174.218432
 20
-225.570572
 10
1174.117653
 20
-225.572155
 10
1174.016874
 20
-225.570572
 10
1173.916492999999
 20
-225.565827
 10
1173.816906
 20
-225.557941
 10
1173.718505
 20
-225.546943
 10
1173.621679999999
 20
-225.5328779999999
 10
1173.526811999999
 20
-225.5158009999999
 10
1173.434276
 20
-225.495779
 10
1173.344436999999
 20
-225.472891
 10
1173.25765
 20
-225.4472279999999
 10
1173.174257
 20
-225.4188909999999
 10
1173.094586
 20
-225.387992
 10
1173.018954
 20
-225.3546519999999
 10
1172.947656999999
 20
-225.319004
 10
1172.880978
 20
-225.2811879999999
 10
1172.819178999999
 20
-225.2413529999999
 10
1172.762505
 20
-225.199656
 10
1172.711178999999
 20
-225.156262
 10
1172.665403999999
 20
-225.111343
 10
1172.62536
 20
-225.065075
 10
1172.591206
 20
-225.017641
 10
1172.563075
 20
-224.969228
 10
1172.54108
 20
-224.9200279999999
 10
1172.525307
 20
-224.8702339999999
 10
1172.515818
 20
-224.820044
 10
1172.512651
 20
-224.769654
 10
1172.515818
 20
-224.7192649999999
 10
1172.525307
 20
-224.669074
 10
1172.54108
 20
-224.619281
 10
1172.563075
 20
-224.570081
 10
1172.591206
 20
-224.5216679999999
 10
1172.62536
 20
-224.474234
 10
1172.665403999999
 20
-224.427966
 10
1172.711178999999
 20
-224.383047
 10
1172.762505
 20
-224.3396529999999
 10
1172.819178999999
 20
-224.297956
 10
1172.880978
 20
-224.2581209999999
 10
1172.947656999999
 20
-224.2203049999999
 10
1173.018954
 20
-224.184656
 10
1173.094586
 20
-224.151317
 10
1173.174257
 20
-224.120418
 10
1173.25765
 20
-224.0920809999999
 10
1173.344436999999
 20
-224.066418
 10
1173.434276
 20
-224.0435299999999
 10
1173.526811999999
 20
-224.023508
 10
1173.621679999999
 20
-224.006431
 10
1173.718505
 20
-223.992366
 10
1173.816906
 20
-223.981368
 10
1173.916492999999
 20
-223.9734819999999
 10
1174.016874
 20
-223.9687369999999
 10
1174.117653
 20
-223.9671539999999
 10
1174.218432
 20
-223.9687369999999
 10
1174.318813
 20
-223.9734819999999
 10
1174.4184
 20
-223.981368
 10
1174.516800999999
 20
-223.992366
 10
1174.613625999999
 20
-224.006431
 10
1174.708492999999
 20
-224.023508
 10
1174.801028999999
 20
-224.0435299999999
 10
1174.890868
 20
-224.066418
 10
1174.977656
 20
-224.0920809999999
 10
1175.061048999999
 20
-224.120418
 10
1175.140719
 20
-224.151317
 10
1175.216352
 20
-224.184656
 10
1175.287649
 20
-224.2203049999999
  0
LWPOLYLINE
  5
E55
330
36
100
AcDbEntity
  8
1
  6
CONTINUOUS
 62
     5
100
AcDbPolyline
 90
      100
 70
     1
 43
0.0
 10
1174.349163
 20
-225.5612619999999
 10
1174.272501999999
 20
-225.5673059999999
 10
1174.195231
 20
-225.570942
 10
1174.117653
 20
-225.572155
 10
1174.040074999999
 20
-225.570942
 10
1173.962802999999
 20
-225.5673059999999
 10
1173.886143
 20
-225.5612619999999
 10
1173.810396
 20
-225.552834
 10
1173.735862
 20
-225.5420549999999
 10
1173.662833999999
 20
-225.528968
 10
1173.591601999999
 20
-225.513624
 10
1173.522446
 20
-225.4960839999999
 10
1173.455638
 20
-225.476417
 10
1173.391443
 20
-225.4547009999999
 10
1173.330115
 20
-225.4310209999999
 10
1173.271893999999
 20
-225.405471
 10
1173.217010999999
 20
-225.3781509999999
 10
1173.165683
 20
-225.349171
 10
1173.118110999999
 20
-225.3186429999999
 10
1173.074484999999
 20
-225.286688
 10
1173.034974999999
 20
-225.253433
 10
1172.999738
 20
-225.2190089999999
 10
1172.968913
 20
-225.1835509999999
 10
1172.942621
 20
-225.1472
 10
1172.920967
 20
-225.110099
 10
1172.904036
 20
-225.0723939999999
 10
1172.891893999999
 20
-225.0342349999999
 10
1172.88459
 20
-224.9957709999999
 10
1172.882151999999
 20
-224.9571549999999
 10
1172.88459
 20
-224.9185379999999
 10
1172.891893999999
 20
-224.880075
 10
1172.904036
 20
-224.841915
 10
1172.920967
 20
-224.80421
 10
1172.942621
 20
-224.7671089999999
 10
1172.968913
 20
-224.730758
 10
1172.999738
 20
-224.6952999999999
 10
1173.034974999999
 20
-224.6608759999999
 10
1173.074484999999
 20
-224.6276209999999
 10
1173.118110999999
 20
-224.595666
 10
1173.165683
 20
-224.5651379999999
 10
1173.217010999999
 20
-224.5361579999999
 10
1173.271893999999
 20
-224.5088379999999
 10
1173.330115
 20
-224.483288
 10
1173.391443
 20
-224.4596089999999
 10
1173.455638
 20
-224.4378919999999
 10
1173.522446
 20
-224.418225
 10
1173.591601999999
 20
-224.400685
 10
1173.662833999999
 20
-224.385341
 10
1173.735862
 20
-224.3722539999999
 10
1173.810396
 20
-224.361475
 10
1173.886143
 20
-224.353047
 10
1173.962802999999
 20
-224.3470029999999
 10
1174.040074999999
 20
-224.343368
 10
1174.117653
 20
-224.3421539999999
 10
1174.195231
 20
-224.343368
 10
1174.272501999999
 20
-224.3470029999999
 10
1174.349163
 20
-224.353047
 10
1174.424909999999
 20
-224.361475
 10
1174.499444
 20
-224.3722539999999
 10
1174.572471
 20
-224.385341
 10
1174.643703999999
 20
-224.400685
 10
1174.712859999999
 20
-224.418225
 10
1174.779667999999
 20
-224.4378919999999
 10
1174.843862
 20
-224.4596089999999
 10
1174.905191
 20
-224.483288
 10
1174.963411999999
 20
-224.5088379999999
 10
1175.018294999999
 20
-224.5361579999999
 10
1175.069623
 20
-224.5651379999999
 10
1175.117194
 20
-224.595666
 10
1175.160821
 20
-224.6276209999999
 10
1175.200331
 20
-224.6608759999999
 10
1175.235568
 20
-224.6952999999999
 10
1175.266393
 20
-224.730758
 10
1175.292684
 20
-224.7671089999999
 10
1175.314339
 20
-224.80421
 10
1175.331269999999
 20
-224.841915
 10
1175.343411999999
 20
-224.880075
 10
1175.350716
 20
-224.9185379999999
 10
1175.353153999999
 20
-224.9571549999999
 10
1175.350716
 20
-224.9957709999999
 10
1175.343411999999
 20
-225.0342349999999
 10
1175.331269999999
 20
-225.0723939999999
 10
1175.314339
 20
-225.110099
 10
1175.292684
 20
-225.1472
 10
1175.266393
 20
-225.1835509999999
 10
1175.235568
 20
-225.2190089999999
 10
1175.200331
 20
-225.253433
 10
1175.160821
 20
-225.286688
 10
1175.117194
 20
-225.3186429999999
 10
1175.069623
 20
-225.349171
 10
1175.018294999999
 20
-225.3781509999999
 10
1174.963411999999
 20
-225.405471
 10
1174.905191
 20
-225.4310209999999
 10
1174.843862
 20
-225.4547009999999
 10
1174.779667999999
 20
-225.476417
 10
1174.712859999999
 20
-225.4960839999999
 10
1174.643703999999
 20
-225.513624
 10
1174.572471
 20
-225.528968
 10
1174.499444
 20
-225.5420549999999
 10
1174.424909999999
 20
-225.552834
  0
LWPOLYLINE
  5
EBB
330
36
100
AcDbEntity
  8
1
  6
CONTINUOUS
 62
     5
100
AcDbPolyline
 90
      103
 70
     1
 43
0.0
 10
1176.014651
 20
-224.511864
 10
1176.029983
 20
-224.53342
 10
1176.043543999999
 20
-224.552487
 10
1176.079035999999
 20
-224.6143219999999
 10
1176.106786999999
 20
-224.6771639999999
 10
1176.126687
 20
-224.740763
 10
1176.138659
 20
-224.804869
 10
1176.142655
 20
-224.86923
 10
1176.138659
 20
-224.9335899999999
 10
1176.126687
 20
-224.997696
 10
1176.106786999999
 20
-225.061296
 10
1176.079035999999
 20
-225.124137
 10
1176.043543999999
 20
-225.185972
 10
1176.000452
 20
-225.246558
 10
1175.94993
 20
-225.305654
 10
1175.892176
 20
-225.3630279999999
 10
1175.827418999999
 20
-225.4184529999999
 10
1175.755914
 20
-225.47171
 10
1175.677944
 20
-225.5225899999999
 10
1175.593816
 20
-225.570891
 10
1175.503862
 20
-225.6164229999999
 10
1175.408438
 20
-225.659006
 10
1175.307918999999
 20
-225.698473
 10
1175.202702999999
 20
-225.7346669999999
 10
1175.093205
 20
-225.767445
 10
1174.979857
 20
-225.7966779999999
 10
1174.863106
 20
-225.8222509999999
 10
1174.743413
 20
-225.8440639999999
 10
1174.621249999999
 20
-225.8620279999999
 10
1174.4971
 20
-225.8760749999999
 10
1174.371453
 20
-225.8861479999999
 10
1174.244803999999
 20
-225.892208
 10
1174.117653
 20
-225.894231
 10
1173.990501999999
 20
-225.892208
 10
1173.863853
 20
-225.8861479999999
 10
1173.738205
 20
-225.8760749999999
 10
1173.614055
 20
-225.8620279999999
 10
1173.491893
 20
-225.8440639999999
 10
1173.372199999999
 20
-225.8222509999999
 10
1173.255449
 20
-225.7966779999999
 10
1173.142101
 20
-225.767445
 10
1173.032601999999
 20
-225.7346669999999
 10
1172.927386
 20
-225.698473
 10
1172.826868
 20
-225.659006
 10
1172.731442999999
 20
-225.6164229999999
 10
1172.641489999999
 20
-225.570891
 10
1172.557362
 20
-225.5225899999999
 10
1172.479392
 20
-225.47171
 10
1172.407886999999
 20
-225.4184529999999
 10
1172.34313
 20
-225.3630279999999
 10
1172.285376
 20
-225.305654
 10
1172.234852999999
 20
-225.246558
 10
1172.191761
 20
-225.185972
 10
1172.15627
 20
-225.124137
 10
1172.128518999999
 20
-225.061296
 10
1172.108617999999
 20
-224.997696
 10
1172.096647
 20
-224.9335899999999
 10
1172.092651
 20
-224.86923
 10
1172.096647
 20
-224.804869
 10
1172.108617999999
 20
-224.740763
 10
1172.128518999999
 20
-224.6771639999999
 10
1172.15627
 20
-224.6143219999999
 10
1172.191761
 20
-224.552487
 10
1172.234852999999
 20
-224.491902
 10
1172.285376
 20
-224.4328049999999
 10
1172.34313
 20
-224.3754319999999
 10
1172.407886999999
 20
-224.3200069999999
 10
1172.479392
 20
-224.266749
 10
1172.557362
 20
-224.215869
 10
1172.641489999999
 20
-224.167568
 10
1172.731442999999
 20
-224.1220359999999
 10
1172.826868
 20
-224.0794529999999
 10
1172.927386
 20
-224.039986
 10
1173.032601999999
 20
-224.003793
 10
1173.142101
 20
-223.971014
 10
1173.255449
 20
-223.9417809999999
 10
1173.372199999999
 20
-223.916208
 10
1173.491893
 20
-223.8943959999999
 10
1173.614055
 20
-223.876431
 10
1173.738205
 20
-223.8623839999999
 10
1173.863853
 20
-223.852311
 10
1173.990501999999
 20
-223.8462509999999
 10
1174.117653
 20
-223.844229
 10
1174.244803999999
 20
-223.8462509999999
 10
1174.371453
 20
-223.852311
 10
1174.4971
 20
-223.8623839999999
 10
1174.621249999999
 20
-223.876431
 10
1174.743413
 20
-223.8943959999999
 10
1174.863106
 20
-223.916208
 10
1174.979857
 20
-223.9417809999999
 10
1175.093205
 20
-223.971014
 10
1175.202702999999
 20
-224.003793
 10
1175.307918999999
 20
-224.039986
 10
1175.408438
 20
-224.0794529999999
 10
1175.503862
 20
-224.1220359999999
 10
1175.593816
 20
-224.167568
 10
1175.677944
 20
-224.215869
 10
1175.755914
 20
-224.266749
 10
1175.827418999999
 20
-224.3200069999999
 10
1175.892176
 20
-224.3754319999999
 10
1175.94993
 20
-224.4328049999999
 10
1176.000452
 20
-224.491902
 10
1176.014651
 20
-224.511864
  0
LWPOLYLINE
  5
F24
330
36
100
AcDbEntity
  8
1
  6
CONTINUOUS
 62
     5
100
AcDbPolyline
 90
      100
 70
     1
 43
0.0
 10
1130.322026999999
 20
-225.5612619999999
 10
1130.245367
 20
-225.5673059999999
 10
1130.168094999999
 20
-225.570942
 10
1130.090517
 20
-225.572155
 10
1130.012938999999
 20
-225.570942
 10
1129.935668
 20
-225.5673059999999
 10
1129.859007
 20
-225.5612619999999
 10
1129.783259999999
 20
-225.552834
 10
1129.708726
 20
-225.5420549999999
 10
1129.635699
 20
-225.528968
 10
1129.564466
 20
-225.513624
 10
1129.49531
 20
-225.4960839999999
 10
1129.428502
 20
-225.476417
 10
1129.364307999999
 20
-225.4547009999999
 10
1129.302978999999
 20
-225.4310209999999
 10
1129.244758
 20
-225.405471
 10
1129.189875
 20
-225.3781509999999
 10
1129.138546999999
 20
-225.349171
 10
1129.090976
 20
-225.3186429999999
 10
1129.047349
 20
-225.286688
 10
1129.007839
 20
-225.253433
 10
1128.972602
 20
-225.2190089999999
 10
1128.941777
 20
-225.1835509999999
 10
1128.915485999999
 20
-225.1472
 10
1128.893831
 20
-225.110099
 10
1128.8769
 20
-225.0723939999999
 10
1128.864757999999
 20
-225.0342349999999
 10
1128.857454
 20
-224.9957709999999
 10
1128.855015999999
 20
-224.9571549999999
 10
1128.857454
 20
-224.9185379999999
 10
1128.864757999999
 20
-224.880075
 10
1128.8769
 20
-224.841915
 10
1128.893831
 20
-224.80421
 10
1128.915485999999
 20
-224.7671089999999
 10
1128.941777
 20
-224.730758
 10
1128.972602
 20
-224.6952999999999
 10
1129.007839
 20
-224.6608759999999
 10
1129.047349
 20
-224.6276209999999
 10
1129.090976
 20
-224.595666
 10
1129.138546999999
 20
-224.5651379999999
 10
1129.189875
 20
-224.5361579999999
 10
1129.244758
 20
-224.5088379999999
 10
1129.302978999999
 20
-224.483288
 10
1129.364307999999
 20
-224.4596089999999
 10
1129.428502
 20
-224.4378919999999
 10
1129.49531
 20
-224.418225
 10
1129.564466
 20
-224.400685
 10
1129.635699
 20
-224.385341
 10
1129.708726
 20
-224.3722539999999
 10
1129.783259999999
 20
-224.361475
 10
1129.859007
 20
-224.353047
 10
1129.935668
 20
-224.3470029999999
 10
1130.012938999999
 20
-224.343368
 10
1130.090517
 20
-224.3421539999999
 10
1130.168094999999
 20
-224.343368
 10
1130.245367
 20
-224.3470029999999
 10
1130.322026999999
 20
-224.353047
 10
1130.397774
 20
-224.361475
 10
1130.472308
 20
-224.3722539999999
 10
1130.545335
 20
-224.385341
 10
1130.616567999999
 20
-224.400685
 10
1130.685723999999
 20
-224.418225
 10
1130.752532
 20
-224.4378919999999
 10
1130.816726999999
 20
-224.4596089999999
 10
1130.878055
 20
-224.483288
 10
1130.936275999999
 20
-224.5088379999999
 10
1130.991158999999
 20
-224.5361579999999
 10
1131.042486999999
 20
-224.5651379999999
 10
1131.090058999999
 20
-224.595666
 10
1131.133684999999
 20
-224.6276209999999
 10
1131.173194999999
 20
-224.6608759999999
 10
1131.208432
 20
-224.6952999999999
 10
1131.239257
 20
-224.730758
 10
1131.265548999999
 20
-224.7671089999999
 10
1131.287203
 20
-224.80421
 10
1131.304134
 20
-224.841915
 10
1131.316276
 20
-224.880075
 10
1131.323579999999
 20
-224.9185379999999
 10
1131.326017999999
 20
-224.9571549999999
 10
1131.323579999999
 20
-224.9957709999999
 10
1131.316276
 20
-225.0342349999999
 10
1131.304134
 20
-225.0723939999999
 10
1131.287203
 20
-225.110099
 10
1131.265548999999
 20
-225.1472
 10
1131.239257
 20
-225.1835509999999
 10
1131.208432
 20
-225.2190089999999
 10
1131.173194999999
 20
-225.253433
 10
1131.133684999999
 20
-225.286688
 10
1131.090058999999
 20
-225.3186429999999
 10
1131.042486999999
 20
-225.349171
 10
1130.991158999999
 20
-225.3781509999999
 10
1130.936275999999
 20
-225.405471
 10
1130.878055
 20
-225.4310209999999
 10
1130.816726999999
 20
-225.4547009999999
 10
1130.752532
 20
-225.476417
 10
1130.685723999999
 20
-225.4960839999999
 10
1130.616567999999
 20
-225.513624
 10
1130.545335
 20
-225.528968
 10
1130.472308
 20
-225.5420549999999
 10
1130.397774
 20
-225.552834
  0
LWPOLYLINE
  5
F8A
330
36
100
AcDbEntity
  8
1
  6
CONTINUOUS
 62
     5
100
AcDbPolyline
 90
      101
 70
     1
 43
0.0
 10
1131.260513
 20
-224.2203049999999
 10
1131.327192
 20
-224.2581209999999
 10
1131.388991
 20
-224.297956
 10
1131.445664999999
 20
-224.3396529999999
 10
1131.496991
 20
-224.383047
 10
1131.542766
 20
-224.427966
 10
1131.58281
 20
-224.474234
 10
1131.616964
 20
-224.5216679999999
 10
1131.645094999999
 20
-224.570081
 10
1131.66709
 20
-224.619281
 10
1131.682862999999
 20
-224.669074
 10
1131.692352
 20
-224.7192649999999
 10
1131.695518999999
 20
-224.769654
 10
1131.692352
 20
-224.820044
 10
1131.682862999999
 20
-224.8702339999999
 10
1131.66709
 20
-224.9200279999999
 10
1131.645094999999
 20
-224.969228
 10
1131.616964
 20
-225.017641
 10
1131.58281
 20
-225.065075
 10
1131.542766
 20
-225.111343
 10
1131.496991
 20
-225.156262
 10
1131.445664999999
 20
-225.199656
 10
1131.388991
 20
-225.2413529999999
 10
1131.327192
 20
-225.2811879999999
 10
1131.260513
 20
-225.319004
 10
1131.189215999999
 20
-225.3546519999999
 10
1131.113584
 20
-225.387992
 10
1131.033913
 20
-225.4188909999999
 10
1130.950519999999
 20
-225.4472279999999
 10
1130.863732999999
 20
-225.472891
 10
1130.773894
 20
-225.495779
 10
1130.681358
 20
-225.5158009999999
 10
1130.58649
 20
-225.5328779999999
 10
1130.489665
 20
-225.546943
 10
1130.391264
 20
-225.557941
 10
1130.291676999999
 20
-225.565827
 10
1130.191296
 20
-225.570572
 10
1130.090517
 20
-225.572155
 10
1129.989738
 20
-225.570572
 10
1129.889357
 20
-225.565827
 10
1129.789769999999
 20
-225.557941
 10
1129.691368999999
 20
-225.546943
 10
1129.594544
 20
-225.5328779999999
 10
1129.499677
 20
-225.5158009999999
 10
1129.407140999999
 20
-225.495779
 10
1129.317302
 20
-225.472891
 10
1129.230514
 20
-225.4472279999999
 10
1129.147121
 20
-225.4188909999999
 10
1129.067450999999
 20
-225.387992
 10
1128.991818
 20
-225.3546519999999
 10
1128.920521
 20
-225.319004
 10
1128.853842
 20
-225.2811879999999
 10
1128.792043
 20
-225.2413529999999
 10
1128.735368999999
 20
-225.199656
 10
1128.684043
 20
-225.156262
 10
1128.638268
 20
-225.111343
 10
1128.598224
 20
-225.065075
 10
1128.56407
 20
-225.017641
 10
1128.53594
 20
-224.969228
 10
1128.513944
 20
-224.9200279999999
 10
1128.498171
 20
-224.8702339999999
 10
1128.488683
 20
-224.820044
 10
1128.485515
 20
-224.769654
 10
1128.488683
 20
-224.7192649999999
 10
1128.498171
 20
-224.669074
 10
1128.513944
 20
-224.619281
 10
1128.53594
 20
-224.570081
 10
1128.56407
 20
-224.5216679999999
 10
1128.598224
 20
-224.474234
 10
1128.638268
 20
-224.427966
 10
1128.684043
 20
-224.383047
 10
1128.735368999999
 20
-224.3396529999999
 10
1128.792043
 20
-224.297956
 10
1128.853842
 20
-224.2581209999999
 10
1128.920521
 20
-224.2203049999999
 10
1128.991818
 20
-224.184656
 10
1129.067450999999
 20
-224.151317
 10
1129.147121
 20
-224.120418
 10
1129.230514
 20
-224.0920809999999
 10
1129.317302
 20
-224.066418
 10
1129.407140999999
 20
-224.0435299999999
 10
1129.499677
 20
-224.023508
 10
1129.594544
 20
-224.006431
 10
1129.691368999999
 20
-223.992366
 10
1129.789769999999
 20
-223.981368
 10
1129.889357
 20
-223.9734819999999
 10
1129.989738
 20
-223.9687369999999
 10
1130.090517
 20
-223.9671539999999
 10
1130.191296
 20
-223.9687369999999
 10
1130.291676999999
 20
-223.9734819999999
 10
1130.391264
 20
-223.981368
 10
1130.489665
 20
-223.992366
 10
1130.58649
 20
-224.006431
 10
1130.681358
 20
-224.023508
 10
1130.773894
 20
-224.0435299999999
 10
1130.863732999999
 20
-224.066418
 10
1130.950519999999
 20
-224.0920809999999
 10
1131.033913
 20
-224.120418
 10
1131.113584
 20
-224.151317
 10
1131.189215999999
 20
-224.184656
 10
1131.260513
 20
-224.2203049999999
  0
LWPOLYLINE
  5
FF1
330
36
100
AcDbEntity
  8
1
  6
CONTINUOUS
 62
     5
100
AcDbPolyline
 90
      103
 70
     1
 43
0.0
 10
1131.987515
 20
-224.511864
 10
1132.002847
 20
-224.53342
 10
1132.016409
 20
-224.552487
 10
1132.051899999999
 20
-224.6143219999999
 10
1132.079651
 20
-224.6771639999999
 10
1132.099551999999
 20
-224.740763
 10
1132.111523
 20
-224.804869
 10
1132.115518999999
 20
-224.86923
 10
1132.111523
 20
-224.9335899999999
 10
1132.099551999999
 20
-224.997696
 10
1132.079651
 20
-225.061296
 10
1132.051899999999
 20
-225.124137
 10
1132.016409
 20
-225.185972
 10
1131.973316
 20
-225.246558
 10
1131.922794
 20
-225.305654
 10
1131.86504
 20
-225.3630279999999
 10
1131.800283
 20
-225.4184529999999
 10
1131.728778
 20
-225.47171
 10
1131.650808
 20
-225.5225899999999
 10
1131.56668
 20
-225.570891
 10
1131.476725999999
 20
-225.6164229999999
 10
1131.381302
 20
-225.659006
 10
1131.280784
 20
-225.698473
 10
1131.175567999999
 20
-225.7346669999999
 10
1131.066069
 20
-225.767445
 10
1130.952721
 20
-225.7966779999999
 10
1130.835969999999
 20
-225.8222509999999
 10
1130.716277
 20
-225.8440639999999
 10
1130.594115
 20
-225.8620279999999
 10
1130.469965
 20
-225.8760749999999
 10
1130.344317
 20
-225.8861479999999
 10
1130.217668
 20
-225.892208
 10
1130.090517
 20
-225.894231
 10
1129.963365999999
 20
-225.892208
 10
1129.836716999999
 20
-225.8861479999999
 10
1129.711069999999
 20
-225.8760749999999
 10
1129.58692
 20
-225.8620279999999
 10
1129.464757
 20
-225.8440639999999
 10
1129.345064
 20
-225.8222509999999
 10
1129.228313
 20
-225.7966779999999
 10
1129.114965
 20
-225.767445
 10
1129.005467
 20
-225.7346669999999
 10
1128.900251
 20
-225.698473
 10
1128.799732
 20
-225.659006
 10
1128.704308
 20
-225.6164229999999
 10
1128.614353999999
 20
-225.570891
 10
1128.530226
 20
-225.5225899999999
 10
1128.452256
 20
-225.47171
 10
1128.380750999999
 20
-225.4184529999999
 10
1128.315994
 20
-225.3630279999999
 10
1128.25824
 20
-225.305654
 10
1128.207718
 20
-225.246558
 10
1128.164626
 20
-225.185972
 10
1128.129134
 20
-225.124137
 10
1128.101382999999
 20
-225.061296
 10
1128.081482999999
 20
-224.997696
 10
1128.069511
 20
-224.9335899999999
 10
1128.065515
 20
-224.86923
 10
1128.069511
 20
-224.804869
 10
1128.081482999999
 20
-224.740763
 10
1128.101382999999
 20
-224.6771639999999
 10
1128.129134
 20
-224.6143219999999
 10
1128.164626
 20
-224.552487
 10
1128.207718
 20
-224.491902
 10
1128.25824
 20
-224.4328049999999
 10
1128.315994
 20
-224.3754319999999
 10
1128.380750999999
 20
-224.3200069999999
 10
1128.452256
 20
-224.266749
 10
1128.530226
 20
-224.215869
 10
1128.614353999999
 20
-224.167568
 10
1128.704308
 20
-224.1220359999999
 10
1128.799732
 20
-224.0794529999999
 10
1128.900251
 20
-224.039986
 10
1129.005467
 20
-224.003793
 10
1129.114965
 20
-223.971014
 10
1129.228313
 20
-223.9417809999999
 10
1129.345064
 20
-223.916208
 10
1129.464757
 20
-223.8943959999999
 10
1129.58692
 20
-223.876431
 10
1129.711069999999
 20
-223.8623839999999
 10
1129.836716999999
 20
-223.852311
 10
1129.963365999999
 20
-223.8462509999999
 10
1130.090517
 20
-223.844229
 10
1130.217668
 20
-223.8462509999999
 10
1130.344317
 20
-223.852311
 10
1130.469965
 20
-223.8623839999999
 10
1130.594115
 20
-223.876431
 10
1130.716277
 20
-223.8943959999999
 10
1130.835969999999
 20
-223.916208
 10
1130.952721
 20
-223.9417809999999
 10
1131.066069
 20
-223.971014
 10
1131.175567999999
 20
-224.003793
 10
1131.280784
 20
-224.039986
 10
1131.381302
 20
-224.0794529999999
 10
1131.476725999999
 20
-224.1220359999999
 10
1131.56668
 20
-224.167568
 10
1131.650808
 20
-224.215869
 10
1131.728778
 20
-224.266749
 10
1131.800283
 20
-224.3200069999999
 10
1131.86504
 20
-224.3754319999999
 10
1131.922794
 20
-224.4328049999999
 10
1131.973316
 20
-224.491902
 10
1131.987515
 20
-224.511864
  0
LWPOLYLINE
  5
105A
330
36
100
AcDbEntity
  8
1
  6
CONTINUOUS
 62
     5
100
AcDbPolyline
 90
       42
 70
     0
 43
0.0
 10
1176.142586999999
 20
-226.975543
 10
1176.070185
 20
-227.082079
 10
1176.017792
 20
-227.14622
 10
1175.957898999999
 20
-227.2084919999999
 10
1175.890742999999
 20
-227.2686479999999
 10
1175.81659
 20
-227.326452
 10
1175.735732
 20
-227.3816749999999
 10
1175.648489
 20
-227.4341
 10
1175.555202999999
 20
-227.483519
 10
1175.456244999999
 20
-227.529737
 10
1175.352003
 20
-227.572573
 10
1175.24289
 20
-227.611856
 10
1175.129336999999
 20
-227.647433
 10
1175.01179
 20
-227.679162
 10
1174.890715
 20
-227.706918
 10
1174.766589
 20
-227.7305919999999
 10
1174.639901999999
 20
-227.75009
 10
1174.511153999999
 20
-227.7653359999999
 10
1174.380852999999
 20
-227.7762689999999
 10
1174.249513
 20
-227.782846
 10
1174.117653
 20
-227.785042
 10
1173.985793
 20
-227.782846
 10
1173.854452999999
 20
-227.7762689999999
 10
1173.724151999999
 20
-227.7653359999999
 10
1173.595404
 20
-227.75009
 10
1173.468716
 20
-227.7305919999999
 10
1173.344589999999
 20
-227.706918
 10
1173.223515
 20
-227.679162
 10
1173.105969
 20
-227.647433
 10
1172.992415
 20
-227.611856
 10
1172.883302999999
 20
-227.572573
 10
1172.779060999999
 20
-227.529737
 10
1172.680101999999
 20
-227.483519
 10
1172.586816999999
 20
-227.4341
 10
1172.499573
 20
-227.3816749999999
 10
1172.418715
 20
-227.326452
 10
1172.344561999999
 20
-227.2686479999999
 10
1172.277406999999
 20
-227.2084919999999
 10
1172.217514
 20
-227.14622
 10
1172.165119999999
 20
-227.082079
 10
1172.120432
 20
-227.016322
 10
1172.092651
 20
-226.965664
  0
ARC
  5
1086
330
36
100
AcDbEntity
  8
1
  6
CONTINUOUS
 62
     5
100
AcDbCircle
 10
1152.082814999999
 20
-222.7340129999999
 30
0.0
 40
4.631266
100
AcDbArc
 50
-106.767034
 51
-73.36370200000001
  0
ARC
  5
1087
330
36
100
AcDbEntity
  8
1
  6
CONTINUOUS
 62
     5
100
AcDbCircle
 10
1153.542858
 20
-226.98872
 30
0.0
 40
0.12985
100
AcDbArc
 50
-64.966541
 51
-4.983792
  0
LINE
  5
1088
330
36
100
AcDbEntity
  8
1
  6
CONTINUOUS
 62
     5
100
AcDbLine
 10
1153.597804
 20
-227.1063729999999
 30
0.0
 11
1153.408726
 21
-227.17142
 31
0.0
  0
ARC
  5
1089
330
36
100
AcDbEntity
  8
1
  6
CONTINUOUS
 62
     5
100
AcDbCircle
 10
1152.082987
 20
-222.360456
 30
0.0
 40
4.775516
100
AcDbArc
 50
-106.2484439999999
 51
-73.88229200000002
  0
ARC
  5
108A
330
36
100
AcDbEntity
  8
1
  6
CONTINUOUS
 62
     5
100
AcDbCircle
 10
1150.565096
 20
-226.967064
 30
0.0
 40
0.117903
100
AcDbArc
 50
-171.443729
 51
-114.486919
  0
LINE
  5
108B
330
36
100
AcDbEntity
  8
1
  6
CONTINUOUS
 62
     5
100
AcDbLine
 10
1150.516226
 20
-227.074362
 30
0.0
 11
1150.746783
 21
-227.168383
 31
0.0
  0
LWPOLYLINE
  5
108C
330
36
100
AcDbEntity
  8
1
  6
CONTINUOUS
 62
     5
100
AcDbPolyline
 90
       42
 70
     0
 43
0.0
 10
1132.115317
 20
-226.97574
 10
1132.04305
 20
-227.082079
 10
1131.990655999999
 20
-227.14622
 10
1131.930763
 20
-227.2084919999999
 10
1131.863608
 20
-227.2686479999999
 10
1131.789455
 20
-227.326452
 10
1131.708597
 20
-227.3816749999999
 10
1131.621353
 20
-227.4341
 10
1131.528068
 20
-227.483519
 10
1131.429108999999
 20
-227.529737
 10
1131.324867
 20
-227.572573
 10
1131.215755
 20
-227.611856
 10
1131.102201
 20
-227.647433
 10
1130.984655
 20
-227.679162
 10
1130.86358
 20
-227.706918
 10
1130.739453
 20
-227.7305919999999
 10
1130.612766
 20
-227.75009
 10
1130.484017999999
 20
-227.7653359999999
 10
1130.353716999999
 20
-227.7762689999999
 10
1130.222377
 20
-227.782846
 10
1130.090517
 20
-227.785042
 10
1129.958657
 20
-227.782846
 10
1129.827316999999
 20
-227.7762689999999
 10
1129.697016
 20
-227.7653359999999
 10
1129.568268
 20
-227.75009
 10
1129.441581
 20
-227.7305919999999
 10
1129.317455
 20
-227.706918
 10
1129.19638
 20
-227.679162
 10
1129.078833
 20
-227.647433
 10
1128.96528
 20
-227.611856
 10
1128.856167
 20
-227.572573
 10
1128.751925
 20
-227.529737
 10
1128.652967
 20
-227.483519
 10
1128.559681
 20
-227.4341
 10
1128.472437999999
 20
-227.3816749999999
 10
1128.39158
 20
-227.326452
 10
1128.317427
 20
-227.2686479999999
 10
1128.250271
 20
-227.2084919999999
 10
1128.190377999999
 20
-227.14622
 10
1128.137984
 20
-227.082079
 10
1128.093296
 20
-227.016322
 10
1128.065515
 20
-226.965664
  0
LINE
  5
10B8
330
36
100
AcDbEntity
  8
1
  6
CONTINUOUS
 62
     5
100
AcDbLine
 10
1177.092126
 20
-228.6806959999999
 30
0.0
 11
1127.09213
 21
-228.6806959999999
 31
0.0
  0
LINE
  5
10B9
330
36
100
AcDbEntity
  8
1
  6
CONTINUOUS
 62
     5
100
AcDbLine
 10
1176.142655
 20
-224.86923
 30
0.0
 11
1176.142586999999
 21
-226.975543
 31
0.0
  0
LINE
  5
10BA
330
36
100
AcDbEntity
  8
1
  6
CONTINUOUS
 62
     5
100
AcDbLine
 10
1172.092651
 20
-224.86923
 30
0.0
 11
1172.092651
 21
-226.965664
 31
0.0
  0
LINE
  5
10BB
330
36
100
AcDbEntity
  8
1
  6
CONTINUOUS
 62
     5
100
AcDbLine
 10
1153.422127999999
 20
-226.406743
 30
0.0
 11
1153.422127999999
 21
-226.754287
 31
0.0
  0
ARC
  5
10BC
330
36
100
AcDbEntity
  8
1
  6
CONTINUOUS
 62
     5
100
AcDbCircle
 10
1153.407228999999
 20
-226.69366
 30
0.0
 40
0.060002
100
AcDbArc
 50
-75.622587
 51
74.33914399999999
  0
LWPOLYLINE
  5
10BD
330
36
100
AcDbEntity
  8
1
  6
CONTINUOUS
 62
     5
100
AcDbPolyline
 90
        3
 70
     0
 43
0.0
 10
1153.422127999999
 20
-226.6091029999999
 10
1153.526639
 20
-226.626777
 10
1153.568199
 20
-226.638209
  0
ARC
  5
10C2
330
36
100
AcDbEntity
  8
1
  6
CONTINUOUS
 62
     5
100
AcDbCircle
 10
1153.542858
 20
-226.7655629999999
 30
0.0
 40
0.12985
100
AcDbArc
 50
-64.966541
 51
78.74657500000001
  0
LINE
  5
10C3
330
36
100
AcDbEntity
  8
1
  6
CONTINUOUS
 62
     5
100
AcDbLine
 10
1153.597804
 20
-226.8832149999999
 30
0.0
 11
1153.408726
 21
-226.948263
 31
0.0
  0
LINE
  5
10C4
330
36
100
AcDbEntity
  8
1
  6
CONTINUOUS
 62
     5
100
AcDbLine
 10
1153.672218
 20
-226.7768439999999
 30
0.0
 11
1153.672218
 21
-227.0000009999999
 31
0.0
  0
LINE
  5
10C5
330
36
100
AcDbEntity
  8
1
  6
CONTINUOUS
 62
     5
100
AcDbLine
 10
1150.447277
 20
-226.7483609999999
 30
0.0
 11
1150.448505
 21
-226.9846049999999
 31
0.0
  0
LINE
  5
10C6
330
36
100
AcDbEntity
  8
1
  6
CONTINUOUS
 62
     5
100
AcDbLine
 10
1150.762127999999
 20
-226.40343
 30
0.0
 11
1150.760186
 21
-226.75125
 31
0.0
  0
ARC
  5
10C7
330
36
100
AcDbEntity
  8
1
  6
CONTINUOUS
 62
     5
100
AcDbCircle
 10
1150.777026999999
 20
-226.69366
 30
0.0
 40
0.060002
100
AcDbArc
 50
105.660854
 51
-104.3774109999999
  0
ARC
  5
10C8
330
36
100
AcDbEntity
  8
1
  6
CONTINUOUS
 62
     5
100
AcDbCircle
 10
1152.091888
 20
-223.0992
 30
0.0
 40
3.887273999999999
100
AcDbArc
 50
-110.034134
 51
-69.98879999999999
  0
LWPOLYLINE
  5
10C9
330
36
100
AcDbEntity
  8
1
  6
CONTINUOUS
 62
     5
100
AcDbPolyline
 90
        3
 70
     0
 43
0.0
 10
1150.517644
 20
-226.635974
 10
1150.674976
 20
-226.584791
 10
1150.761163
 20
-226.5763009999999
  0
ARC
  5
10CE
330
36
100
AcDbEntity
  8
1
  6
CONTINUOUS
 62
     5
100
AcDbCircle
 10
1150.565096
 20
-226.743906
 30
0.0
 40
0.117903
100
AcDbArc
 50
113.732284
 51
-114.486919
  0
LINE
  5
10CF
330
36
100
AcDbEntity
  8
1
  6
CONTINUOUS
 62
     5
100
AcDbLine
 10
1150.516226
 20
-226.851205
 30
0.0
 11
1150.746783
 21
-226.9452259999999
 31
0.0
  0
LWPOLYLINE
  5
10D0
330
36
100
AcDbEntity
  8
1
  6
CONTINUOUS
 62
     5
100
AcDbPolyline
 90
       14
 70
     0
 43
0.0
 10
1154.076356999999
 20
-225.822155
 10
1154.076356999999
 20
-225.8525099999999
 10
1153.951681
 20
-226.071022
 10
1153.710162
 20
-226.268716
 10
1153.366976
 20
-226.433172
 10
1152.943687
 20
-226.5540539999999
 10
1152.466891
 20
-226.623768
 10
1151.966547
 20
-226.6379339999999
 10
1151.474093999999
 20
-226.5956609999999
 10
1151.020474999999
 20
-226.4996049999999
 10
1150.634191
 20
-226.355802
 10
1150.339515
 20
-226.1732879999999
 10
1150.154962
 20
-225.963531
 10
1150.128119
 20
-225.867912
  0
LWPOLYLINE
  5
10E0
330
36
100
AcDbEntity
  8
1
  6
CONTINUOUS
 62
     5
100
AcDbPolyline
 90
      102
 70
     1
 43
0.0
 10
1153.491602999999
 20
-225.227192
 10
1153.550065
 20
-225.2479459999999
 10
1153.633155
 20
-225.2814029999999
 10
1153.710162
 20
-225.316647
 10
1153.780784
 20
-225.353537
 10
1153.844741
 20
-225.391929
 10
1153.901782
 20
-225.4316709999999
 10
1153.951681
 20
-225.472606
 10
1153.994241
 20
-225.514572
 10
1154.029293999999
 20
-225.5574039999999
 10
1154.056701999999
 20
-225.6009329999999
 10
1154.076356999999
 20
-225.644987
 10
1154.088181
 20
-225.689393
 10
1154.092128
 20
-225.733974
 10
1154.088181
 20
-225.7785549999999
 10
1154.076356999999
 20
-225.8229609999999
 10
1154.056701999999
 20
-225.8670149999999
 10
1154.029293999999
 20
-225.9105439999999
 10
1153.994241
 20
-225.953376
 10
1153.951681
 20
-225.9953419999999
 10
1153.901782
 20
-226.0362769999999
 10
1153.844741
 20
-226.076019
 10
1153.780784
 20
-226.114411
 10
1153.710162
 20
-226.151302
 10
1153.633155
 20
-226.186545
 10
1153.550065
 20
-226.2200019999999
 10
1153.461222
 20
-226.251542
 10
1153.366976
 20
-226.2810379999999
 10
1153.267699
 20
-226.3083759999999
 10
1153.163782
 20
-226.333447
 10
1153.055635
 20
-226.356152
 10
1152.943687
 20
-226.376401
 10
1152.828377
 20
-226.3941149999999
 10
1152.710161999999
 20
-226.409224
 10
1152.589507999999
 20
-226.421668
 10
1152.466891
 20
-226.431398
 10
1152.342795
 20
-226.4383749999999
 10
1152.217709
 20
-226.442573
 10
1152.092128
 20
-226.443974
 10
1151.966547
 20
-226.442573
 10
1151.841461999999
 20
-226.4383749999999
 10
1151.717366
 20
-226.431398
 10
1151.594747999999
 20
-226.421668
 10
1151.474093999999
 20
-226.409224
 10
1151.355879
 20
-226.3941149999999
 10
1151.24057
 20
-226.376401
 10
1151.128621
 20
-226.356152
 10
1151.020474999999
 20
-226.333447
 10
1150.916558
 20
-226.3083759999999
 10
1150.81728
 20
-226.2810379999999
 10
1150.723034
 20
-226.251542
 10
1150.634191
 20
-226.2200019999999
 10
1150.551101999999
 20
-226.186545
 10
1150.474094
 20
-226.151302
 10
1150.403472
 20
-226.114411
 10
1150.339515
 20
-226.076019
 10
1150.282474
 20
-226.0362769999999
 10
1150.232575
 20
-225.9953419999999
 10
1150.190015
 20
-225.953376
 10
1150.154962
 20
-225.9105439999999
 10
1150.127553999999
 20
-225.8670149999999
 10
1150.107899
 20
-225.8229609999999
 10
1150.096074999999
 20
-225.7785549999999
 10
1150.092128
 20
-225.733974
 10
1150.096074999999
 20
-225.689393
 10
1150.107899
 20
-225.644987
 10
1150.127553999999
 20
-225.6009329999999
 10
1150.154962
 20
-225.5574039999999
 10
1150.190015
 20
-225.514572
 10
1150.232575
 20
-225.472606
 10
1150.282474
 20
-225.4316709999999
 10
1150.339515
 20
-225.391929
 10
1150.403472
 20
-225.353537
 10
1150.474094
 20
-225.316647
 10
1150.551101999999
 20
-225.2814029999999
 10
1150.634191
 20
-225.2479459999999
 10
1150.723034
 20
-225.216406
 10
1150.81728
 20
-225.1869099999999
 10
1150.916558
 20
-225.159572
 10
1151.020474999999
 20
-225.1345009999999
 10
1151.128621
 20
-225.111796
 10
1151.24057
 20
-225.091547
 10
1151.355879
 20
-225.073833
 10
1151.474093999999
 20
-225.058724
 10
1151.594747999999
 20
-225.0462799999999
 10
1151.717366
 20
-225.03655
 10
1151.841461999999
 20
-225.0295729999999
 10
1151.966547
 20
-225.025375
 10
1152.092128
 20
-225.023974
 10
1152.217709
 20
-225.025375
 10
1152.342795
 20
-225.0295729999999
 10
1152.466891
 20
-225.03655
 10
1152.589507999999
 20
-225.0462799999999
 10
1152.710161999999
 20
-225.058724
 10
1152.828377
 20
-225.073833
 10
1152.943687
 20
-225.091547
 10
1153.055635
 20
-225.111796
 10
1153.163782
 20
-225.1345009999999
 10
1153.267699
 20
-225.159572
 10
1153.366976
 20
-225.1869099999999
 10
1153.461222
 20
-225.216406
 10
1153.491602999999
 20
-225.227192
  0
LINE
  5
1148
330
36
100
AcDbEntity
  8
1
  6
CONTINUOUS
 62
     5
100
AcDbLine
 10
1128.065515
 20
-224.86923
 30
0.0
 11
1128.065515
 21
-226.965664
 31
0.0
  0
ARC
  5
1149
330
36
100
AcDbEntity
  8
1
  6
CONTINUOUS
 62
     5
100
AcDbCircle
 10
1113.547972999999
 20
-224.0907029999999
 30
0.0
 40
0.1
100
AcDbArc
 50
59.999999
 51
119.999999
  0
LWPOLYLINE
  5
114A
330
36
100
AcDbEntity
  8
1
  6
CONTINUOUS
 62
     5
100
AcDbPolyline
 90
        6
 70
     0
 43
0.0
 10
1113.497973
 20
-224.004101
 10
1113.047973
 20
-224.2639089999999
 10
1112.272973
 20
-225.606248
 10
1116.083484
 20
-227.806248
 10
1116.858484
 20
-226.4639089999999
 10
1116.858484
 20
-225.944293
  0
ARC
  5
1152
330
36
100
AcDbEntity
  8
1
  6
CONTINUOUS
 62
     5
100
AcDbCircle
 10
1116.758483999999
 20
-225.944293
 30
0.0
 40
0.1
100
AcDbArc
 50
0.0
 51
59.999999
  0
LINE
  5
1153
330
36
100
AcDbEntity
  8
1
  6
CONTINUOUS
 62
     5
100
AcDbLine
 10
1116.808483999999
 20
-225.857691
 30
0.0
 11
1113.597973
 21
-224.004101
 31
0.0
  0
LINE
  5
1154
330
36
100
AcDbEntity
  8
1
  6
CONTINUOUS
 62
     5
100
AcDbLine
 10
1132.115518999999
 20
-224.86923
 30
0.0
 11
1132.115317
 21
-226.97574
 31
0.0
  0
ARC
  5
1155
330
36
100
AcDbEntity
  8
1
  6
CONTINUOUS
 62
     5
100
AcDbCircle
 10
1126.380335999999
 20
-224.8
 30
0.0
 40
0.3
100
AcDbArc
 50
89.999999
 51
179.999998
  0
LINE
  5
1156
330
36
100
AcDbEntity
  8
1
  6
CONTINUOUS
 62
     5
100
AcDbLine
 10
1126.380335999999
 20
-224.5
 30
0.0
 11
1128.201958
 21
-224.5
 31
0.0
  0
LINE
  5
1157
330
36
100
AcDbEntity
  8
1
  6
CONTINUOUS
 62
     5
100
AcDbLine
 10
1131.979077
 20
-224.5
 30
0.0
 11
1172.229093
 21
-224.5
 31
0.0
  0
LINE
  5
1158
330
36
100
AcDbEntity
  8
1
  6
CONTINUOUS
 62
     5
100
AcDbLine
 10
1176.006212
 20
-224.5
 30
0.0
 11
1177.78039
 21
-224.5
 31
0.0
  0
ARC
  5
1159
330
36
100
AcDbEntity
  8
1
  6
CONTINUOUS
 62
     5
100
AcDbCircle
 10
1177.78039
 20
-224.8
 30
0.0
 40
0.3
100
AcDbArc
 50
0.0
 51
89.999999
  0
LINE
  5
115A
330
36
100
AcDbEntity
  8
1
  6
CONTINUOUS
 62
     5
100
AcDbLine
 10
1178.08039
 20
-224.8
 30
0.0
 11
1178.08039
 21
-235.1999999999999
 31
0.0
  0
ARC
  5
115B
330
36
100
AcDbEntity
  8
1
  6
CONTINUOUS
 62
     5
100
AcDbCircle
 10
1177.78039
 20
-235.1999999999999
 30
0.0
 40
0.3
100
AcDbArc
 50
-89.999999
 51
0.0
  0
LINE
  5
115C
330
36
100
AcDbEntity
  8
1
  6
CONTINUOUS
 62
     5
100
AcDbLine
 10
1177.78039
 20
-235.4999999999999
 30
0.0
 11
1126.380335999999
 21
-235.4999999999999
 31
0.0
  0
ARC
  5
115D
330
36
100
AcDbEntity
  8
1
  6
CONTINUOUS
 62
     5
100
AcDbCircle
 10
1126.380335999999
 20
-235.1999999999999
 30
0.0
 40
0.3
100
AcDbArc
 50
179.999998
 51
-89.999999
  0
LINE
  5
115E
330
36
100
AcDbEntity
  8
1
  6
CONTINUOUS
 62
     5
100
AcDbLine
 10
1126.080336
 20
-235.1999999999999
 30
0.0
 11
1126.080336
 21
-224.8
 31
0.0
  0
CIRCLE
  5
115F
330
36
100
AcDbEntity
  8
1
  6
CONTINUOUS
 62
     5
100
AcDbCircle
 10
1082.949998
 20
-208.8999999999999
 30
0.0
 40
0.9
  0
LINE
  5
1160
330
36
100
AcDbEntity
  8
1
  6
DOT2
 62
     5
100
AcDbLine
 10
1081.849998
 20
-208.8999999999999
 30
0.0
 11
1084.049998
 21
-208.8999999999999
 31
0.0
  0
LINE
  5
1161
330
36
100
AcDbEntity
  8
1
  6
DOT2
 62
     5
100
AcDbLine
 10
1082.949998
 20
-210.0
 30
0.0
 11
1082.949998
 21
-207.8
 31
0.0
  0
CIRCLE
  5
1162
330
36
100
AcDbEntity
  8
1
  6
CONTINUOUS
 62
     5
100
AcDbCircle
 10
1058.949998
 20
-208.8999999999999
 30
0.0
 40
0.9
  0
LINE
  5
1163
330
36
100
AcDbEntity
  8
1
  6
DOT2
 62
     5
100
AcDbLine
 10
1057.849998
 20
-208.8999999999999
 30
0.0
 11
1060.049997999999
 21
-208.8999999999999
 31
0.0
  0
LINE
  5
1164
330
36
100
AcDbEntity
  8
1
  6
DOT2
 62
     5
100
AcDbLine
 10
1058.949998
 20
-210.0
 30
0.0
 11
1058.949998
 21
-207.8
 31
0.0
  0
LINE
  5
1165
330
36
100
AcDbEntity
  8
1
  6
DOT2
 62
     5
100
AcDbLine
 10
1081.849998
 20
-231.0
 30
0.0
 11
1084.049998
 21
-231.0
 31
0.0
  0
LINE
  5
1166
330
36
100
AcDbEntity
  8
1
  6
DOT2
 62
     5
100
AcDbLine
 10
1082.949998
 20
-232.1
 30
0.0
 11
1082.949998
 21
-229.8999999999999
 31
0.0
  0
CIRCLE
  5
1167
330
36
100
AcDbEntity
  8
1
  6
CONTINUOUS
 62
     5
100
AcDbCircle
 10
1082.949998
 20
-231.0
 30
0.0
 40
0.9
  0
CIRCLE
  5
1168
330
36
100
AcDbEntity
  8
1
  6
DOT2
 62
     5
100
AcDbCircle
 10
1070.999998
 20
-236.650004
 30
0.0
 40
0.6
  0
CIRCLE
  5
1169
330
36
100
AcDbEntity
  8
1
  6
CONTINUOUS
 62
     5
100
AcDbCircle
 10
1070.999998
 20
-236.650004
 30
0.0
 40
0.5053
  0
LINE
  5
116A
330
36
100
AcDbEntity
  8
1
  6
DOT2
 62
     5
100
AcDbLine
 10
1075.899998
 20
-256.429027
 30
0.0
 11
1075.899998
 21
-251.666527
 31
0.0
  0
LWPOLYLINE
  5
116B
330
36
100
AcDbEntity
  8
1
  6
CONTINUOUS
 62
     5
100
AcDbPolyline
 90
        4
 70
     0
 43
0.0
 10
1074.699998
 20
-254.999991
 10
1074.699998
 20
-255.9499909999999
 10
1077.099998
 20
-255.9499909999999
 10
1077.099998
 20
-254.999991
  0
CIRCLE
  5
1171
330
36
100
AcDbEntity
  8
1
  6
CONTINUOUS
 62
     5
100
AcDbCircle
 10
1058.949998
 20
-231.0
 30
0.0
 40
0.9
  0
LINE
  5
1172
330
36
100
AcDbEntity
  8
1
  6
DOT2
 62
     5
100
AcDbLine
 10
1057.849998
 20
-231.0
 30
0.0
 11
1060.049997999999
 21
-231.0
 31
0.0
  0
LINE
  5
1173
330
36
100
AcDbEntity
  8
1
  6
DOT2
 62
     5
100
AcDbLine
 10
1058.949998
 20
-232.1
 30
0.0
 11
1058.949998
 21
-229.8999999999999
 31
0.0
  0
LWPOLYLINE
  5
1174
330
36
100
AcDbEntity
  8
1
  6
CONTINUOUS
 62
     5
100
AcDbPolyline
 90
        4
 70
     0
 43
0.0
 10
1064.699998
 20
-254.95
 10
1064.699998
 20
-255.999991
 10
1067.099998
 20
-255.999991
 10
1067.099998
 20
-254.999991
  0
LWPOLYLINE
  5
117A
330
36
100
AcDbEntity
  8
1
  6
CONTINUOUS
 62
     5
100
AcDbPolyline
 90
        4
 70
     1
 43
0.0
 10
1067.399998
 20
-254.999991
 10
1064.399998
 20
-254.999991
 10
1064.399998
 20
-255.999991
 10
1067.399998
 20
-255.999991
  0
CIRCLE
  5
1181
330
36
100
AcDbEntity
  8
1
  6
CONTINUOUS
 62
     5
100
AcDbCircle
 10
1070.999998
 20
-236.650004
 30
0.0
 40
1.5
  0
LINE
  5
118D
330
36
100
AcDbEntity
  8
1
  6
DOT2
 62
     5
100
AcDbLine
 10
1066.852593999999
 20
-243.0
 30
0.0
 11
1075.902203999999
 21
-243.0
 31
0.0
  0
LINE
  5
118E
330
36
100
AcDbEntity
  8
1
  6
CONTINUOUS
 62
     5
100
AcDbLine
 10
1108.596895
 20
-234.25
 30
0.0
 11
1108.596895
 21
-225.7499999999999
 31
0.0
  0
CIRCLE
  5
118F
330
36
100
AcDbEntity
  8
1
  6
CONTINUOUS
 62
     5
100
AcDbCircle
 10
1082.949998
 20
-226.9
 30
0.0
 40
0.9
  0
LINE
  5
1190
330
36
100
AcDbEntity
  8
1
  6
DOT2
 62
     5
100
AcDbLine
 10
1081.849998
 20
-226.9
 30
0.0
 11
1084.049998
 21
-226.9
 31
0.0
  0
LINE
  5
1191
330
36
100
AcDbEntity
  8
1
  6
DOT2
 62
     5
100
AcDbLine
 10
1082.949998
 20
-228.0
 30
0.0
 11
1082.949998
 21
-225.8
 31
0.0
  0
CIRCLE
  5
1192
330
36
100
AcDbEntity
  8
1
  6
CONTINUOUS
 62
     5
100
AcDbCircle
 10
1058.949998
 20
-226.9
 30
0.0
 40
0.9
  0
LINE
  5
1193
330
36
100
AcDbEntity
  8
1
  6
DOT2
 62
     5
100
AcDbLine
 10
1057.849998
 20
-226.9
 30
0.0
 11
1060.049997999999
 21
-226.9
 31
0.0
  0
LINE
  5
1194
330
36
100
AcDbEntity
  8
1
  6
DOT2
 62
     5
100
AcDbLine
 10
1058.949998
 20
-228.0
 30
0.0
 11
1058.949998
 21
-225.8
 31
0.0
  0
LWPOLYLINE
  5
1195
330
36
100
AcDbEntity
  8
1
  6
CONTINUOUS
 62
     5
100
AcDbPolyline
 90
        6
 70
     0
 43
0.0
 10
1061.049998
 20
-205.0
 10
1057.949998
 20
-205.0
 10
1056.949998
 20
-206.0
 10
1056.949998
 20
-232.0
 10
1057.949998
 20
-233.0
 10
1061.049998
 20
-233.0
  0
LWPOLYLINE
  5
119D
330
36
100
AcDbEntity
  8
1
  6
CONTINUOUS
 62
     5
100
AcDbPolyline
 90
        6
 70
     0
 43
0.0
 10
1080.949998
 20
-233.0
 10
1083.949998
 20
-233.0
 10
1084.949998
 20
-232.0
 10
1084.949998
 20
-206.0
 10
1083.949998
 20
-205.0
 10
1080.949998
 20
-205.0
  0
LINE
  5
11A5
330
36
100
AcDbEntity
  8
1
  6
DOT2
 62
     5
100
AcDbLine
 10
1070.999998
 20
-256.95
 30
0.0
 11
1070.999998
 21
-202.817397
 31
0.0
  0
ARC
  5
11A6
330
36
100
AcDbEntity
  8
1
  6
CONTINUOUS
 62
     5
100
AcDbCircle
 10
1061.149998
 20
-204.5999999999999
 30
0.0
 40
0.1
100
AcDbArc
 50
89.999999
 51
179.999998
  0
LINE
  5
11A7
330
36
100
AcDbEntity
  8
1
  6
CONTINUOUS
 62
     5
100
AcDbLine
 10
1061.149998
 20
-204.4999999999999
 30
0.0
 11
1080.849998
 21
-204.4999999999999
 31
0.0
  0
ARC
  5
11A8
330
36
100
AcDbEntity
  8
1
  6
CONTINUOUS
 62
     5
100
AcDbCircle
 10
1080.849998
 20
-204.5999999999999
 30
0.0
 40
0.1
100
AcDbArc
 50
0.0
 51
89.999999
  0
LINE
  5
11A9
330
36
100
AcDbEntity
  8
1
  6
CONTINUOUS
 62
     5
100
AcDbLine
 10
1080.949998
 20
-204.5999999999999
 30
0.0
 11
1080.949998
 21
-253.9499999999999
 31
0.0
  0
ARC
  5
11AA
330
36
100
AcDbEntity
  8
1
  6
CONTINUOUS
 62
     5
100
AcDbCircle
 10
1079.949998
 20
-253.9499999999999
 30
0.0
 40
1.0
100
AcDbArc
 50
-89.999999
 51
0.0
  0
LINE
  5
11AB
330
36
100
AcDbEntity
  8
1
  6
CONTINUOUS
 62
     5
100
AcDbLine
 10
1079.949998
 20
-254.95
 30
0.0
 11
1062.049997999999
 21
-254.95
 31
0.0
  0
ARC
  5
11AC
330
36
100
AcDbEntity
  8
1
  6
CONTINUOUS
 62
     5
100
AcDbCircle
 10
1062.049997999999
 20
-253.9499999999999
 30
0.0
 40
1.0
100
AcDbArc
 50
179.999998
 51
-89.999999
  0
LINE
  5
11AD
330
36
100
AcDbEntity
  8
1
  6
CONTINUOUS
 62
     5
100
AcDbLine
 10
1061.049998
 20
-253.9499999999999
 30
0.0
 11
1061.049998
 21
-204.5999999999999
 31
0.0
  0
ARC
  5
11AE
330
36
100
AcDbEntity
  8
1
  6
DASHED
 62
     5
100
AcDbCircle
 10
1062.049997999999
 20
-253.9499999999999
 30
0.0
 40
0.9
100
AcDbArc
 50
179.999998
 51
-89.999999
  0
LINE
  5
11AF
330
36
100
AcDbEntity
  8
1
  6
DASHED
 62
     5
100
AcDbLine
 10
1062.049997999999
 20
-254.85
 30
0.0
 11
1079.949998
 21
-254.85
 31
0.0
  0
ARC
  5
11B0
330
36
100
AcDbEntity
  8
1
  6
DASHED
 62
     5
100
AcDbCircle
 10
1079.949998
 20
-253.9499999999999
 30
0.0
 40
0.9
100
AcDbArc
 50
-89.999999
 51
0.0
  0
LWPOLYLINE
  5
11B1
330
36
100
AcDbEntity
  8
1
  6
DASHED
 62
     5
100
AcDbPolyline
 90
        4
 70
     0
 43
0.0
 10
1080.849998
 20
-253.9499999999999
 10
1080.849998
 20
-204.5999999999999
 10
1061.149998
 20
-204.5999999999999
 10
1061.149998
 20
-253.9499999999999
  0
LINE
  5
11B7
330
36
100
AcDbEntity
  8
1
  6
DOT2
 62
     5
100
AcDbLine
 10
1109.256895
 20
-224.5
 30
0.0
 11
1110.088946
 21
-224.5
 31
0.0
  0
LINE
  5
11B8
330
36
100
AcDbEntity
  8
1
  6
CONTINUOUS
 62
     5
100
AcDbLine
 10
1108.596895
 20
-225.7499999999999
 30
0.0
 11
1108.756894999999
 21
-225.7499999999999
 31
0.0
  0
LWPOLYLINE
  5
11B9
330
36
100
AcDbEntity
  8
1
  6
CONTINUOUS
 62
     5
100
AcDbPolyline
 90
        3
 70
     0
 43
0.0
 10
1108.756894999999
 20
-235.24
 10
1108.756894999999
 20
-235.4999999999999
 10
1109.016895
 20
-235.4999999999999
  0
LINE
  5
11BE
330
36
100
AcDbEntity
  8
1
  6
CONTINUOUS
 62
     5
100
AcDbLine
 10
1108.596895
 20
-234.25
 30
0.0
 11
1108.756894999999
 21
-234.25
 31
0.0
  0
ARC
  5
11BF
330
36
100
AcDbEntity
  8
1
  6
CONTINUOUS
 62
     5
100
AcDbCircle
 10
1113.545167
 20
-235.24
 30
0.0
 40
0.26
100
AcDbArc
 50
-89.999999
 51
-30.39817
  0
LINE
  5
11C0
330
36
100
AcDbEntity
  8
1
  6
CONTINUOUS
 62
     5
100
AcDbLine
 10
1113.545167
 20
-235.4999999999999
 30
0.0
 11
1109.016895
 21
-235.4999999999999
 31
0.0
  0
ARC
  5
11C1
330
36
100
AcDbEntity
  8
1
  6
CONTINUOUS
 62
     5
100
AcDbCircle
 10
1109.016895
 20
-235.24
 30
0.0
 40
0.26
100
AcDbArc
 50
179.999998
 51
-89.999999
  0
LWPOLYLINE
  5
11C2
330
36
100
AcDbEntity
  8
1
  6
CONTINUOUS
 62
     5
100
AcDbPolyline
 90
        3
 70
     0
 43
0.0
 10
1108.756894999999
 20
-235.24
 10
1108.756894999999
 20
-234.5002599999999
 10
1108.756894999999
 20
-225.0
  0
ARC
  5
11C7
330
36
100
AcDbEntity
  8
1
  6
CONTINUOUS
 62
     5
100
AcDbCircle
 10
1109.256895
 20
-225.0
 30
0.0
 40
0.5
100
AcDbArc
 50
89.999999
 51
179.999998
  0
LINE
  5
11C8
330
36
100
AcDbEntity
  8
1
  6
CONTINUOUS
 62
     5
100
AcDbLine
 10
1109.256895
 20
-224.5
 30
0.0
 11
1110.088946
 21
-224.5
 31
0.0
  0
ARC
  5
11C9
330
36
100
AcDbEntity
  8
1
  6
CONTINUOUS
 62
     5
100
AcDbCircle
 10
1110.088946
 20
-225.4999999999999
 30
0.0
 40
1.0
100
AcDbArc
 50
59.999999
 51
89.999999
  0
LINE
  5
11CA
330
36
100
AcDbEntity
  8
1
  6
CONTINUOUS
 62
     5
100
AcDbLine
 10
1110.588946
 20
-224.633975
 30
0.0
 11
1116.757935999999
 21
-228.195643
 31
0.0
  0
ARC
  5
11CB
330
36
100
AcDbEntity
  8
1
  6
CONTINUOUS
 62
     5
100
AcDbCircle
 10
1116.257936
 20
-229.061668
 30
0.0
 40
1.0
100
AcDbArc
 50
-29.93110399999999
 51
59.999999
  0
LINE
  5
11CC
330
36
100
AcDbEntity
  8
1
  6
CONTINUOUS
 62
     5
100
AcDbLine
 10
1117.124562
 20
-229.560626
 30
0.0
 11
1113.769424999999
 21
-235.371562
 31
0.0
  0
LINE
  5
11CD
330
36
100
AcDbEntity
  8
1
  6
DOT2
 62
     3
100
AcDbLine
 10
1124.000007
 20
-129.097898
 30
0.0
 11
1124.000007
 21
-109.0
 31
0.0
  0
LINE
  5
11CE
330
36
100
AcDbEntity
  8
1
  6
DOT2
 62
     3
100
AcDbLine
 10
1174.499998
 20
-126.8970579999999
 30
0.0
 11
1174.499998
 21
-109.0
 31
0.0
  0
LWPOLYLINE
  5
11CF
330
36
100
AcDbEntity
  8
1
  6
DOT2
 62
     3
100
AcDbPolyline
 90
        8
 70
     0
 43
0.0
 10
1149.250002999999
 20
-110.0
 10
1124.000007
 20
-110.0
 10
1127.048007
 20
-109.492
 10
1127.048007
 20
-110.508
 10
1124.000007
 20
-110.0
 10
1127.048007
 20
-109.7459999999999
 10
1127.048007
 20
-110.254
 10
1124.000007
 20
-110.0
  0
LWPOLYLINE
  5
11D9
330
36
100
AcDbEntity
  8
1
  6
DOT2
 62
     3
100
AcDbPolyline
 90
        8
 70
     0
 43
0.0
 10
1149.250002999999
 20
-110.0
 10
1174.499998
 20
-110.0
 10
1171.451997999999
 20
-110.508
 10
1171.451997999999
 20
-109.492
 10
1174.499998
 20
-110.0
 10
1171.451997999999
 20
-110.254
 10
1171.451997999999
 20
-109.7459999999999
 10
1174.499998
 20
-110.0
  0
TEXT
  5
11E3
330
36
100
AcDbEntity
  8
1
 62
     3
100
AcDbText
 10
1146.540882999999
 20
-109.2996
 30
0.0
 40
3.2
  1
505
 41
0.825
100
AcDbText
  0
LINE
  5
11E4
330
36
100
AcDbEntity
  8
1
  6
DOT2
 62
     3
100
AcDbLine
 10
1173.999997
 20
-158.0
 30
0.0
 11
1173.999997
 21
-180.4999999999999
 31
0.0
  0
LINE
  5
11E5
330
36
100
AcDbEntity
  8
1
  6
DOT2
 62
     3
100
AcDbLine
 10
1174.499997
 20
-157.9
 30
0.0
 11
1174.499997
 21
-180.4999999999999
 31
0.0
  0
LWPOLYLINE
  5
11E6
330
36
100
AcDbEntity
  8
1
  6
DOT2
 62
     3
100
AcDbPolyline
 90
        8
 70
     0
 43
0.0
 10
1180.999997
 20
-179.4999999999999
 10
1174.499997
 20
-179.4999999999999
 10
1177.547997
 20
-178.9919999999999
 10
1177.547997
 20
-180.008
 10
1174.499997
 20
-179.4999999999999
 10
1177.547997
 20
-179.246
 10
1177.547997
 20
-179.7539999999999
 10
1174.499997
 20
-179.4999999999999
  0
LINE
  5
11F0
330
36
100
AcDbEntity
  8
1
  6
DOT2
 62
     3
100
AcDbLine
 10
1174.499997
 20
-179.4999999999999
 30
0.0
 11
1173.999997
 21
-179.4999999999999
 31
0.0
  0
LWPOLYLINE
  5
11F1
330
36
100
AcDbEntity
  8
1
  6
DOT2
 62
     3
100
AcDbPolyline
 90
        8
 70
     0
 43
0.0
 10
1168.951997
 20
-179.4999999999999
 10
1173.999997
 20
-179.4999999999999
 10
1170.951997
 20
-180.008
 10
1170.951997
 20
-178.9919999999999
 10
1173.999997
 20
-179.4999999999999
 10
1170.951997
 20
-179.7539999999999
 10
1170.951997
 20
-179.246
 10
1173.999997
 20
-179.4999999999999
  0
TEXT
  5
11FB
330
36
100
AcDbEntity
  8
1
 62
     3
100
AcDbText
 10
1178.880797
 20
-178.7995999999999
 30
0.0
 40
3.2
  1
5
 41
0.825
100
AcDbText
  0
LINE
  5
11FC
330
36
100
AcDbEntity
  8
1
  6
DOT2
 62
     3
100
AcDbLine
 10
1134.599998
 20
-161.5
 30
0.0
 11
1118.000007
 21
-161.5
 31
0.0
  0
LINE
  5
11FD
330
36
100
AcDbEntity
  8
1
  6
DOT2
 62
     3
100
AcDbLine
 10
1135.243205
 20
-171.5
 30
0.0
 11
1118.000007
 21
-171.5
 31
0.0
  0
LWPOLYLINE
  5
11FE
330
36
100
AcDbEntity
  8
1
  6
DOT2
 62
     3
100
AcDbPolyline
 90
        8
 70
     0
 43
0.0
 10
1119.000007
 20
-176.548
 10
1119.000007
 20
-171.5
 10
1119.508007
 20
-174.548
 10
1118.492007
 20
-174.548
 10
1119.000007
 20
-171.5
 10
1119.254007
 20
-174.548
 10
1118.746007
 20
-174.548
 10
1119.000007
 20
-171.5
  0
LINE
  5
1208
330
36
100
AcDbEntity
  8
1
  6
DOT2
 62
     3
100
AcDbLine
 10
1119.000007
 20
-171.5
 30
0.0
 11
1119.000007
 21
-161.5
 31
0.0
  0
LWPOLYLINE
  5
1209
330
36
100
AcDbEntity
  8
1
  6
DOT2
 62
     3
100
AcDbPolyline
 90
        8
 70
     0
 43
0.0
 10
1119.000007
 20
-156.4519999999999
 10
1119.000007
 20
-161.5
 10
1118.492007
 20
-158.4519999999999
 10
1119.508007
 20
-158.4519999999999
 10
1119.000007
 20
-161.5
 10
1118.746007
 20
-158.4519999999999
 10
1119.254007
 20
-158.4519999999999
 10
1119.000007
 20
-161.5
  0
TEXT
  5
1213
330
36
100
AcDbEntity
  8
1
 62
     3
100
AcDbText
 10
1118.299606999999
 20
-171.3053379999999
 30
0.0
 40
3.2
  1
100
 50
90.0
 41
0.825
100
AcDbText
  0
LINE
  5
1214
330
36
100
AcDbEntity
  8
1
  6
DOT2
 62
     3
100
AcDbLine
 10
1135.999997999999
 20
-161.5
 30
0.0
 11
1113.000007
 21
-161.5
 31
0.0
  0
LINE
  5
1215
330
36
100
AcDbEntity
  8
1
  6
DOT2
 62
     3
100
AcDbLine
 10
1147.999998
 20
-164.5
 30
0.0
 11
1113.000007
 21
-164.5
 31
0.0
  0
LWPOLYLINE
  5
1216
330
36
100
AcDbEntity
  8
1
  6
DOT2
 62
     3
100
AcDbPolyline
 90
        8
 70
     0
 43
0.0
 10
1114.000007
 20
-173.325276
 10
1114.000007
 20
-164.5
 10
1114.508007
 20
-167.548
 10
1113.492007
 20
-167.548
 10
1114.000007
 20
-164.5
 10
1114.254007
 20
-167.548
 10
1113.746007
 20
-167.548
 10
1114.000007
 20
-164.5
  0
LINE
  5
1220
330
36
100
AcDbEntity
  8
1
  6
DOT2
 62
     3
100
AcDbLine
 10
1114.000007
 20
-164.5
 30
0.0
 11
1114.000007
 21
-161.5
 31
0.0
  0
LWPOLYLINE
  5
1221
330
36
100
AcDbEntity
  8
1
  6
DOT2
 62
     3
100
AcDbPolyline
 90
        8
 70
     0
 43
0.0
 10
1114.000007
 20
-156.4519999999999
 10
1114.000007
 20
-161.5
 10
1113.492007
 20
-158.4519999999999
 10
1114.508007
 20
-158.4519999999999
 10
1114.000007
 20
-161.5
 10
1113.746007
 20
-158.4519999999999
 10
1114.254007
 20
-158.4519999999999
 10
1114.000007
 20
-161.5
  0
TEXT
  5
122B
330
36
100
AcDbEntity
  8
1
 62
     3
100
AcDbText
 10
1113.299606999999
 20
-172.5299159999999
 30
0.0
 40
3.2
  1
30
 50
90.0
 41
0.825
100
AcDbText
  0
LINE
  5
122C
330
36
100
AcDbEntity
  8
1
  6
DOT2
 62
     3
100
AcDbLine
 10
1145.999997
 20
-164.5
 30
0.0
 11
1145.999997
 21
-180.4999999999999
 31
0.0
  0
LINE
  5
122D
330
36
100
AcDbEntity
  8
1
  6
DOT2
 62
     3
100
AcDbLine
 10
1135.999997999999
 20
-161.5
 30
0.0
 11
1135.999997999999
 21
-180.4999999999999
 31
0.0
  0
LWPOLYLINE
  5
122E
330
36
100
AcDbEntity
  8
1
  6
DOT2
 62
     3
100
AcDbPolyline
 90
        8
 70
     0
 43
0.0
 10
1130.951998
 20
-179.4999999999999
 10
1135.999997999999
 20
-179.4999999999999
 10
1132.951998
 20
-180.008
 10
1132.951998
 20
-178.9919999999999
 10
1135.999997999999
 20
-179.4999999999999
 10
1132.951998
 20
-179.7539999999999
 10
1132.951998
 20
-179.246
 10
1135.999997999999
 20
-179.4999999999999
  0
LINE
  5
1238
330
36
100
AcDbEntity
  8
1
  6
DOT2
 62
     3
100
AcDbLine
 10
1135.999997999999
 20
-179.4999999999999
 30
0.0
 11
1145.999997
 21
-179.4999999999999
 31
0.0
  0
LWPOLYLINE
  5
1239
330
36
100
AcDbEntity
  8
1
  6
DOT2
 62
     3
100
AcDbPolyline
 90
        8
 70
     0
 43
0.0
 10
1151.047997
 20
-179.4999999999999
 10
1145.999997
 20
-179.4999999999999
 10
1149.047997
 20
-178.9919999999999
 10
1149.047997
 20
-180.008
 10
1145.999997
 20
-179.4999999999999
 10
1149.047997
 20
-179.246
 10
1149.047997
 20
-179.7539999999999
 10
1145.999997
 20
-179.4999999999999
  0
TEXT
  5
1243
330
36
100
AcDbEntity
  8
1
 62
     3
100
AcDbText
 10
1138.290878
 20
-178.7995999999999
 30
0.0
 40
3.2
  1
100
 41
0.825
100
AcDbText
  0
LINE
  5
1244
330
36
100
AcDbEntity
  8
1
  6
DOT2
 62
     3
100
AcDbLine
 10
1145.999997
 20
-164.1206719999999
 30
0.0
 11
1145.999997
 21
-180.4999999999999
 31
0.0
  0
LINE
  5
1245
330
36
100
AcDbEntity
  8
1
  6
DOT2
 62
     3
100
AcDbLine
 10
1173.999997999999
 20
-163.3203659999999
 30
0.0
 11
1173.999997999999
 21
-180.4999999999999
 31
0.0
  0
LWPOLYLINE
  5
1246
330
36
100
AcDbEntity
  8
1
  6
DOT2
 62
     3
100
AcDbPolyline
 90
        8
 70
     0
 43
0.0
 10
1159.999997999999
 20
-179.4999999999999
 10
1145.999997
 20
-179.4999999999999
 10
1149.047997
 20
-178.9919999999999
 10
1149.047997
 20
-180.008
 10
1145.999997
 20
-179.4999999999999
 10
1149.047997
 20
-179.246
 10
1149.047997
 20
-179.7539999999999
 10
1145.999997
 20
-179.4999999999999
  0
LWPOLYLINE
  5
1250
330
36
100
AcDbEntity
  8
1
  6
DOT2
 62
     3
100
AcDbPolyline
 90
        8
 70
     0
 43
0.0
 10
1159.999997999999
 20
-179.4999999999999
 10
1173.999997999999
 20
-179.4999999999999
 10
1170.951998
 20
-180.008
 10
1170.951998
 20
-178.9919999999999
 10
1173.999997999999
 20
-179.4999999999999
 10
1170.951998
 20
-179.7539999999999
 10
1170.951998
 20
-179.246
 10
1173.999997999999
 20
-179.4999999999999
  0
TEXT
  5
125A
330
36
100
AcDbEntity
  8
1
 62
     3
100
AcDbText
 10
1157.290878
 20
-178.7995999999999
 30
0.0
 40
3.2
  1
280
 41
0.825
100
AcDbText
  0
LINE
  5
125B
330
36
100
AcDbEntity
  8
1
  6
DOT2
 62
     3
100
AcDbLine
 10
1174.399998
 20
-115.0
 30
0.0
 11
1185.500009
 21
-115.0
 31
0.0
  0
LINE
  5
125C
330
36
100
AcDbEntity
  8
1
  6
DOT2
 62
     3
100
AcDbLine
 10
1173.999997999999
 20
-164.5
 30
0.0
 11
1185.500009
 21
-164.5
 31
0.0
  0
LWPOLYLINE
  5
125D
330
36
100
AcDbEntity
  8
1
  6
DOT2
 62
     3
100
AcDbPolyline
 90
        8
 70
     0
 43
0.0
 10
1184.500009
 20
-139.7499999999999
 10
1184.500009
 20
-164.5
 10
1183.992009
 20
-161.4519999999999
 10
1185.008008999999
 20
-161.4519999999999
 10
1184.500009
 20
-164.5
 10
1184.246008999999
 20
-161.4519999999999
 10
1184.754009
 20
-161.4519999999999
 10
1184.500009
 20
-164.5
  0
LWPOLYLINE
  5
1267
330
36
100
AcDbEntity
  8
1
  6
DOT2
 62
     3
100
AcDbPolyline
 90
        8
 70
     0
 43
0.0
 10
1184.500009
 20
-139.7499999999999
 10
1184.500009
 20
-115.0
 10
1185.008008999999
 20
-118.0479999999999
 10
1183.992009
 20
-118.0479999999999
 10
1184.500009
 20
-115.0
 10
1184.754009
 20
-118.0479999999999
 10
1184.246008999999
 20
-118.0479999999999
 10
1184.500009
 20
-115.0
  0
TEXT
  5
1271
330
36
100
AcDbEntity
  8
1
 62
     3
100
AcDbText
 10
1183.799609
 20
-142.4591199999999
 30
0.0
 40
3.2
  1
495
 50
90.0
 41
0.825
100
AcDbText
  0
LINE
  5
1272
330
36
100
AcDbEntity
  8
1
  6
DOT2
 62
     3
100
AcDbLine
 10
1060.999997999999
 20
-124.0411099999999
 30
0.0
 11
1060.999997999999
 21
-109.0
 31
0.0
  0
LINE
  5
1273
330
36
100
AcDbEntity
  8
1
  6
DOT2
 62
     3
100
AcDbLine
 10
1080.999998
 20
-124.3840979999999
 30
0.0
 11
1080.999998
 21
-109.0
 31
0.0
  0
LWPOLYLINE
  5
1274
330
36
100
AcDbEntity
  8
1
  6
DOT2
 62
     3
100
AcDbPolyline
 90
        8
 70
     0
 43
0.0
 10
1070.999998
 20
-110.0
 10
1060.999997999999
 20
-110.0
 10
1064.047998
 20
-109.492
 10
1064.047998
 20
-110.508
 10
1060.999997999999
 20
-110.0
 10
1064.047998
 20
-109.7459999999999
 10
1064.047998
 20
-110.254
 10
1060.999997999999
 20
-110.0
  0
LWPOLYLINE
  5
127E
330
36
100
AcDbEntity
  8
1
  6
DOT2
 62
     3
100
AcDbPolyline
 90
        8
 70
     0
 43
0.0
 10
1070.999998
 20
-110.0
 10
1080.999998
 20
-110.0
 10
1077.951998
 20
-110.508
 10
1077.951998
 20
-109.492
 10
1080.999998
 20
-110.0
 10
1077.951998
 20
-110.254
 10
1077.951998
 20
-109.7459999999999
 10
1080.999998
 20
-110.0
  0
TEXT
  5
1288
330
36
100
AcDbEntity
  8
1
 62
     3
100
AcDbText
 10
1068.290877999999
 20
-109.2996
 30
0.0
 40
3.2
  1
200
 41
0.825
100
AcDbText
  0
LINE
  5
1289
330
36
100
AcDbEntity
  8
1
  6
DOT2
 62
     3
100
AcDbLine
 10
1056.999997999999
 20
-164.5
 30
0.0
 11
1056.999997999999
 21
-180.4999999999999
 31
0.0
  0
LINE
  5
128A
330
36
100
AcDbEntity
  8
1
  6
DOT2
 62
     3
100
AcDbLine
 10
1084.999998
 20
-164.5
 30
0.0
 11
1084.999998
 21
-180.4999999999999
 31
0.0
  0
LWPOLYLINE
  5
128B
330
36
100
AcDbEntity
  8
1
  6
DOT2
 62
     3
100
AcDbPolyline
 90
        8
 70
     0
 43
0.0
 10
1070.999998
 20
-179.4999999999999
 10
1056.999997999999
 20
-179.4999999999999
 10
1060.047998
 20
-178.9919999999999
 10
1060.047998
 20
-180.008
 10
1056.999997999999
 20
-179.4999999999999
 10
1060.047998
 20
-179.246
 10
1060.047998
 20
-179.7539999999999
 10
1056.999997999999
 20
-179.4999999999999
  0
LWPOLYLINE
  5
1295
330
36
100
AcDbEntity
  8
1
  6
DOT2
 62
     3
100
AcDbPolyline
 90
        8
 70
     0
 43
0.0
 10
1070.999998
 20
-179.4999999999999
 10
1084.999998
 20
-179.4999999999999
 10
1081.951998
 20
-180.008
 10
1081.951998
 20
-178.9919999999999
 10
1084.999998
 20
-179.4999999999999
 10
1081.951998
 20
-179.7539999999999
 10
1081.951998
 20
-179.246
 10
1084.999998
 20
-179.4999999999999
  0
TEXT
  5
129F
330
36
100
AcDbEntity
  8
1
 62
     3
100
AcDbText
 10
1066.114878
 20
-178.7995999999999
 30
0.0
 40
3.2
  1
(280)
 41
0.825
100
AcDbText
  0
LINE
  5
12A0
330
36
100
AcDbEntity
  8
1
  6
DOT2
 62
     3
100
AcDbLine
 10
1058.999997999999
 20
-164.5
 30
0.0
 11
1058.999997999999
 21
-175.5
 31
0.0
  0
LINE
  5
12A1
330
36
100
AcDbEntity
  8
1
  6
DOT2
 62
     3
100
AcDbLine
 10
1082.999998
 20
-164.5
 30
0.0
 11
1082.999998
 21
-175.5
 31
0.0
  0
LWPOLYLINE
  5
12A2
330
36
100
AcDbEntity
  8
1
  6
DOT2
 62
     3
100
AcDbPolyline
 90
        8
 70
     0
 43
0.0
 10
1070.999998
 20
-174.5
 10
1058.999997999999
 20
-174.5
 10
1062.047998
 20
-173.9919999999999
 10
1062.047998
 20
-175.008
 10
1058.999997999999
 20
-174.5
 10
1062.047998
 20
-174.246
 10
1062.047998
 20
-174.7539999999999
 10
1058.999997999999
 20
-174.5
  0
LWPOLYLINE
  5
12AC
330
36
100
AcDbEntity
  8
1
  6
DOT2
 62
     3
100
AcDbPolyline
 90
        8
 70
     0
 43
0.0
 10
1070.999998
 20
-174.5
 10
1082.999998
 20
-174.5
 10
1079.951998
 20
-175.008
 10
1079.951998
 20
-173.9919999999999
 10
1082.999998
 20
-174.5
 10
1079.951998
 20
-174.7539999999999
 10
1079.951998
 20
-174.246
 10
1082.999998
 20
-174.5
  0
TEXT
  5
12B6
330
36
100
AcDbEntity
  8
1
 62
     3
100
AcDbText
 10
1066.114878
 20
-173.7996
 30
0.0
 40
3.2
  1
(240)
 41
0.825
100
AcDbText
  0
LINE
  5
12B7
330
36
100
AcDbEntity
  8
1
  6
DOT2
 62
     3
100
AcDbLine
 10
1084.999998
 20
-164.5
 30
0.0
 11
1091.999998
 21
-164.5
 31
0.0
  0
LINE
  5
12B8
330
36
100
AcDbEntity
  8
1
  6
DOT2
 62
     3
100
AcDbLine
 10
1079.974998
 20
-115.0
 30
0.0
 11
1091.999998
 21
-115.0
 31
0.0
  0
LWPOLYLINE
  5
12B9
330
36
100
AcDbEntity
  8
1
  6
DOT2
 62
     3
100
AcDbPolyline
 90
        8
 70
     0
 43
0.0
 10
1090.999998
 20
-139.7499999999999
 10
1090.999998
 20
-164.5
 10
1090.491998
 20
-161.4519999999999
 10
1091.507997999999
 20
-161.4519999999999
 10
1090.999998
 20
-164.5
 10
1090.745998
 20
-161.4519999999999
 10
1091.253998
 20
-161.4519999999999
 10
1090.999998
 20
-164.5
  0
LWPOLYLINE
  5
12C3
330
36
100
AcDbEntity
  8
1
  6
DOT2
 62
     3
100
AcDbPolyline
 90
        8
 70
     0
 43
0.0
 10
1090.999998
 20
-139.7499999999999
 10
1090.999998
 20
-115.0
 10
1091.507997999999
 20
-118.0479999999999
 10
1090.491998
 20
-118.0479999999999
 10
1090.999998
 20
-115.0
 10
1091.253998
 20
-118.0479999999999
 10
1090.745998
 20
-118.0479999999999
 10
1090.999998
 20
-115.0
  0
TEXT
  5
12CD
330
36
100
AcDbEntity
  8
1
 62
     3
100
AcDbText
 10
1090.299598
 20
-144.63512
 30
0.0
 40
3.2
  1
(495)
 50
90.0
 41
0.825
100
AcDbText
  0
LINE
  5
12CE
330
36
100
AcDbEntity
  8
1
  6
DOT2
 62
     3
100
AcDbLine
 10
1135.999997999999
 20
-157.0
 30
0.0
 11
1108.000007
 21
-157.0
 31
0.0
  0
LINE
  5
12CF
330
36
100
AcDbEntity
  8
1
  6
DOT2
 62
     3
100
AcDbLine
 10
1135.999997999999
 20
-156.4999999999999
 30
0.0
 11
1108.000007
 21
-156.4999999999999
 31
0.0
  0
LWPOLYLINE
  5
12D0
330
36
100
AcDbEntity
  8
1
  6
DOT2
 62
     3
100
AcDbPolyline
 90
        8
 70
     0
 43
0.0
 10
1109.000007
 20
-149.5
 10
1109.000007
 20
-156.4999999999999
 10
1108.492007
 20
-153.452
 10
1109.508007
 20
-153.452
 10
1109.000007
 20
-156.4999999999999
 10
1108.746007
 20
-153.452
 10
1109.254007
 20
-153.452
 10
1109.000007
 20
-156.4999999999999
  0
LINE
  5
12DA
330
36
100
AcDbEntity
  8
1
  6
DOT2
 62
     3
100
AcDbLine
 10
1109.000007
 20
-157.0
 30
0.0
 11
1109.000007
 21
-156.4999999999999
 31
0.0
  0
LINE
  5
12DB
330
36
100
AcDbEntity
  8
1
  6
DOT2
 62
     3
100
AcDbLine
 10
1109.000007
 20
-160.0159999999999
 30
0.0
 11
1109.000007
 21
-157.0
 31
0.0
  0
LWPOLYLINE
  5
12DC
330
36
100
AcDbEntity
  8
1
  6
DOT2
 62
     3
100
AcDbPolyline
 90
       10
 70
     0
 43
0.0
 10
1108.746007
 20
-156.4919999999999
 10
1109.254007
 20
-156.4919999999999
 10
1109.508007
 20
-156.746
 10
1109.508007
 20
-157.254
 10
1109.254007
 20
-157.5079999999999
 10
1108.746007
 20
-157.5079999999999
 10
1108.492007
 20
-157.254
 10
1108.492007
 20
-156.746
 10
1108.746007
 20
-156.4919999999999
 10
1109.254007
 20
-157.5079999999999
  0
LINE
  5
12E8
330
36
100
AcDbEntity
  8
1
  6
DOT2
 62
     3
100
AcDbLine
 10
1108.746007
 20
-157.5079999999999
 30
0.0
 11
1109.254007
 21
-156.4919999999999
 31
0.0
  0
LINE
  5
12E9
330
36
100
AcDbEntity
  8
1
  6
DOT2
 62
     3
100
AcDbLine
 10
1109.508007
 20
-156.746
 30
0.0
 11
1108.492007
 21
-157.254
 31
0.0
  0
LINE
  5
12EA
330
36
100
AcDbEntity
  8
1
  6
DOT2
 62
     3
100
AcDbLine
 10
1108.492007
 20
-156.746
 30
0.0
 11
1109.508007
 21
-157.254
 31
0.0
  0
TEXT
  5
12EB
330
36
100
AcDbEntity
  8
1
 62
     3
100
AcDbText
 10
1108.299606999999
 20
-151.6192
 30
0.0
 40
3.2
  1
5
 50
90.0
 41
0.825
100
AcDbText
  0
LINE
  5
12EC
330
36
100
AcDbEntity
  8
1
  6
DOT2
 62
     3
100
AcDbLine
 10
1135.999997999999
 20
-161.5
 30
0.0
 11
1108.000007
 21
-161.5
 31
0.0
  0
LINE
  5
12ED
330
36
100
AcDbEntity
  8
1
  6
DOT2
 62
     3
100
AcDbLine
 10
1135.999997999999
 20
-157.0
 30
0.0
 11
1108.000007
 21
-157.0
 31
0.0
  0
LWPOLYLINE
  5
12EE
330
36
100
AcDbEntity
  8
1
  6
DOT2
 62
     3
100
AcDbPolyline
 90
        8
 70
     0
 43
0.0
 10
1109.000007
 20
-166.548
 10
1109.000007
 20
-161.5
 10
1109.508007
 20
-164.548
 10
1108.492007
 20
-164.548
 10
1109.000007
 20
-161.5
 10
1109.254007
 20
-164.548
 10
1108.746007
 20
-164.548
 10
1109.000007
 20
-161.5
  0
LINE
  5
12F8
330
36
100
AcDbEntity
  8
1
  6
DOT2
 62
     3
100
AcDbLine
 10
1109.000007
 20
-161.5
 30
0.0
 11
1109.000007
 21
-157.0
 31
0.0
  0
LINE
  5
12F9
330
36
100
AcDbEntity
  8
1
  6
DOT2
 62
     3
100
AcDbLine
 10
1109.000007
 20
-153.984
 30
0.0
 11
1109.000007
 21
-157.0
 31
0.0
  0
LWPOLYLINE
  5
12FA
330
36
100
AcDbEntity
  8
1
  6
DOT2
 62
     3
100
AcDbPolyline
 90
       10
 70
     0
 43
0.0
 10
1109.254007
 20
-157.5079999999999
 10
1108.746007
 20
-157.5079999999999
 10
1108.492007
 20
-157.254
 10
1108.492007
 20
-156.746
 10
1108.746007
 20
-156.4919999999999
 10
1109.254007
 20
-156.4919999999999
 10
1109.508007
 20
-156.746
 10
1109.508007
 20
-157.254
 10
1109.254007
 20
-157.5079999999999
 10
1108.746007
 20
-156.4919999999999
  0
LINE
  5
1306
330
36
100
AcDbEntity
  8
1
  6
DOT2
 62
     3
100
AcDbLine
 10
1109.254007
 20
-156.4919999999999
 30
0.0
 11
1108.746007
 21
-157.5079999999999
 31
0.0
  0
LINE
  5
1307
330
36
100
AcDbEntity
  8
1
  6
DOT2
 62
     3
100
AcDbLine
 10
1108.492007
 20
-157.254
 30
0.0
 11
1109.508007
 21
-156.746
 31
0.0
  0
LINE
  5
1308
330
36
100
AcDbEntity
  8
1
  6
DOT2
 62
     3
100
AcDbLine
 10
1109.508007
 20
-157.254
 30
0.0
 11
1108.492007
 21
-156.746
 31
0.0
  0
TEXT
  5
1309
330
36
100
AcDbEntity
  8
1
 62
     3
100
AcDbText
 10
1108.299606999999
 20
-160.8711199999999
 30
0.0
 40
3.2
  1
45
 50
90.0
 41
0.825
100
AcDbText
  0
LINE
  5
130A
330
36
100
AcDbEntity
  8
1
  6
DOT2
 62
     3
100
AcDbLine
 10
1126.078708999999
 20
-231.96555
 30
0.0
 11
1126.078708999999
 21
-251.5
 31
0.0
  0
LINE
  5
130B
330
36
100
AcDbEntity
  8
1
  6
DOT2
 62
     3
100
AcDbLine
 10
1178.078724
 20
-231.96555
 30
0.0
 11
1178.078724
 21
-251.5
 31
0.0
  0
LWPOLYLINE
  5
130C
330
36
100
AcDbEntity
  8
1
  6
DOT2
 62
     3
100
AcDbPolyline
 90
        8
 70
     0
 43
0.0
 10
1152.078715999999
 20
-250.4999999999999
 10
1126.078708999999
 20
-250.4999999999999
 10
1129.126709
 20
-249.9919999999999
 10
1129.126709
 20
-251.008
 10
1126.078708999999
 20
-250.4999999999999
 10
1129.126709
 20
-250.246
 10
1129.126709
 20
-250.754
 10
1126.078708999999
 20
-250.4999999999999
  0
LWPOLYLINE
  5
1316
330
36
100
AcDbEntity
  8
1
  6
DOT2
 62
     3
100
AcDbPolyline
 90
        8
 70
     0
 43
0.0
 10
1152.078715999999
 20
-250.4999999999999
 10
1178.078724
 20
-250.4999999999999
 10
1175.030723999999
 20
-251.008
 10
1175.030723999999
 20
-249.9919999999999
 10
1178.078724
 20
-250.4999999999999
 10
1175.030723999999
 20
-250.754
 10
1175.030723999999
 20
-250.246
 10
1178.078724
 20
-250.4999999999999
  0
TEXT
  5
1320
330
36
100
AcDbEntity
  8
1
 62
     3
100
AcDbText
 10
1149.517939999999
 20
-249.8379519999999
 30
0.0
 40
3.024776999999999
  1
520
 41
0.825
100
AcDbText
  0
LINE
  5
1321
330
36
100
AcDbEntity
  8
1
  6
DOT2
 62
     3
100
AcDbLine
 10
1130.078724
 20
-224.5520839999999
 30
0.0
 11
1130.078724
 21
-246.4999999999999
 31
0.0
  0
LINE
  5
1322
330
36
100
AcDbEntity
  8
1
  6
DOT2
 62
     3
100
AcDbLine
 10
1152.078724
 20
-226.6821999999999
 30
0.0
 11
1152.078724
 21
-246.4999999999999
 31
0.0
  0
LWPOLYLINE
  5
1323
330
36
100
AcDbEntity
  8
1
  6
DOT2
 62
     3
100
AcDbPolyline
 90
        8
 70
     0
 43
0.0
 10
1141.078723999999
 20
-245.5
 10
1130.078724
 20
-245.5
 10
1133.126724
 20
-244.992
 10
1133.126724
 20
-246.008
 10
1130.078724
 20
-245.5
 10
1133.126724
 20
-245.246
 10
1133.126724
 20
-245.7539999999999
 10
1130.078724
 20
-245.5
  0
LWPOLYLINE
  5
132D
330
36
100
AcDbEntity
  8
1
  6
DOT2
 62
     3
100
AcDbPolyline
 90
        8
 70
     0
 43
0.0
 10
1141.078723999999
 20
-245.5
 10
1152.078724
 20
-245.5
 10
1149.030723999999
 20
-246.008
 10
1149.030723999999
 20
-244.992
 10
1152.078724
 20
-245.5
 10
1149.030723999999
 20
-245.7539999999999
 10
1149.030723999999
 20
-245.246
 10
1152.078724
 20
-245.5
  0
TEXT
  5
1337
330
36
100
AcDbEntity
  8
1
 62
     3
100
AcDbText
 10
1138.517947
 20
-244.837952
 30
0.0
 40
3.024776999999999
  1
220
 41
0.825
100
AcDbText
  0
LINE
  5
1338
330
36
100
AcDbEntity
  8
1
  6
DOT2
 62
     3
100
AcDbLine
 10
1174.078723999999
 20
-224.907841
 30
0.0
 11
1174.078723999999
 21
-246.4999999999999
 31
0.0
  0
LINE
  5
1339
330
36
100
AcDbEntity
  8
1
  6
DOT2
 62
     3
100
AcDbLine
 10
1152.078736999999
 20
-225.0264379999999
 30
0.0
 11
1152.078736999999
 21
-246.4999999999999
 31
0.0
  0
LWPOLYLINE
  5
133A
330
36
100
AcDbEntity
  8
1
  6
DOT2
 62
     3
100
AcDbPolyline
 90
        8
 70
     0
 43
0.0
 10
1163.07873
 20
-245.5
 10
1152.078736999999
 20
-245.5
 10
1155.126736999999
 20
-244.992
 10
1155.126736999999
 20
-246.008
 10
1152.078736999999
 20
-245.5
 10
1155.126736999999
 20
-245.246
 10
1155.126736999999
 20
-245.7539999999999
 10
1152.078736999999
 20
-245.5
  0
LWPOLYLINE
  5
1344
330
36
100
AcDbEntity
  8
1
  6
DOT2
 62
     3
100
AcDbPolyline
 90
        8
 70
     0
 43
0.0
 10
1163.07873
 20
-245.5
 10
1174.078723999999
 20
-245.5
 10
1171.030724
 20
-246.008
 10
1171.030724
 20
-244.992
 10
1174.078723999999
 20
-245.5
 10
1171.030724
 20
-245.7539999999999
 10
1171.030724
 20
-245.246
 10
1174.078723999999
 20
-245.5
  0
TEXT
  5
134E
330
36
100
AcDbEntity
  8
1
 62
     3
100
AcDbText
 10
1160.517954
 20
-244.837952
 30
0.0
 40
3.024776999999999
  1
220
 41
0.825
100
AcDbText
  0
TEXT
  5
134F
330
36
100
AcDbEntity
  8
1
 62
     3
100
AcDbText
 10
1039.611236
 20
-200.5448379999999
 30
0.0
 40
3.2
  1
6-%%c18
 41
0.825
100
AcDbText
  0
LWPOLYLINE
  5
1350
330
36
100
AcDbEntity
  8
1
  6
DOT2
 62
     3
100
AcDbPolyline
 90
        9
 70
     0
 43
0.0
 10
1036.795236
 20
-201.245238
 10
1051.295236
 20
-201.245238
 10
1058.313601999999
 20
-208.263604
 10
1055.79913
 20
-206.467553
 10
1056.51755
 20
-205.749132
 10
1058.313601999999
 20
-208.263604
 10
1055.978734999999
 20
-206.2879479999999
 10
1056.337944999999
 20
-205.928737
 10
1058.313601999999
 20
-208.263604
  0
LINE
  5
135B
330
36
100
AcDbEntity
  8
1
  6
DOT2
 62
     3
100
AcDbLine
 10
1056.949998
 20
-208.396821
 30
0.0
 11
1056.949998
 21
-193.5
 31
0.0
  0
LINE
  5
135C
330
36
100
AcDbEntity
  8
1
  6
DOT2
 62
     3
100
AcDbLine
 10
1084.949998
 20
-208.330128
 30
0.0
 11
1084.949998
 21
-193.5
 31
0.0
  0
LWPOLYLINE
  5
135D
330
36
100
AcDbEntity
  8
1
  6
DOT2
 62
     3
100
AcDbPolyline
 90
        8
 70
     0
 43
0.0
 10
1070.949998
 20
-194.5
 10
1056.949998
 20
-194.5
 10
1059.997998
 20
-193.9919999999999
 10
1059.997998
 20
-195.0079999999999
 10
1056.949998
 20
-194.5
 10
1059.997998
 20
-194.246
 10
1059.997998
 20
-194.754
 10
1056.949998
 20
-194.5
  0
LWPOLYLINE
  5
1367
330
36
100
AcDbEntity
  8
1
  6
DOT2
 62
     3
100
AcDbPolyline
 90
        8
 70
     0
 43
0.0
 10
1070.949998
 20
-194.5
 10
1084.949998
 20
-194.5
 10
1081.901997999999
 20
-195.0079999999999
 10
1081.901997999999
 20
-193.9919999999999
 10
1084.949998
 20
-194.5
 10
1081.901997999999
 20
-194.754
 10
1081.901997999999
 20
-194.246
 10
1084.949998
 20
-194.5
  0
TEXT
  5
1371
330
36
100
AcDbEntity
  8
1
 62
     3
100
AcDbText
 10
1068.240877999999
 20
-193.7996
 30
0.0
 40
3.2
  1
280
 41
0.825
100
AcDbText
  0
LINE
  5
1372
330
36
100
AcDbEntity
  8
1
  6
DOT2
 62
     3
100
AcDbLine
 10
1058.949998
 20
-208.4
 30
0.0
 11
1058.949998
 21
-198.5
 31
0.0
  0
LINE
  5
1373
330
36
100
AcDbEntity
  8
1
  6
DOT2
 62
     3
100
AcDbLine
 10
1082.949998
 20
-208.4
 30
0.0
 11
1082.949998
 21
-198.5
 31
0.0
  0
LWPOLYLINE
  5
1374
330
36
100
AcDbEntity
  8
1
  6
DOT2
 62
     3
100
AcDbPolyline
 90
        8
 70
     0
 43
0.0
 10
1070.949998
 20
-199.5
 10
1058.949998
 20
-199.5
 10
1061.997998
 20
-198.9919999999999
 10
1061.997998
 20
-200.008
 10
1058.949998
 20
-199.5
 10
1061.997998
 20
-199.246
 10
1061.997998
 20
-199.7539999999999
 10
1058.949998
 20
-199.5
  0
LWPOLYLINE
  5
137E
330
36
100
AcDbEntity
  8
1
  6
DOT2
 62
     3
100
AcDbPolyline
 90
        8
 70
     0
 43
0.0
 10
1070.949998
 20
-199.5
 10
1082.949998
 20
-199.5
 10
1079.901998
 20
-200.008
 10
1079.901998
 20
-198.9919999999999
 10
1082.949998
 20
-199.5
 10
1079.901998
 20
-199.7539999999999
 10
1079.901998
 20
-199.246
 10
1082.949998
 20
-199.5
  0
TEXT
  5
1388
330
36
100
AcDbEntity
  8
1
 62
     3
100
AcDbText
 10
1068.240877999999
 20
-198.7996
 30
0.0
 40
3.2
  1
240
 41
0.825
100
AcDbText
  0
LINE
  5
1389
330
36
100
AcDbEntity
  8
1
  6
DOT2
 62
     3
100
AcDbLine
 10
1058.949998
 20
-208.8999999999999
 30
0.0
 11
1095.949998
 21
-208.8999999999999
 31
0.0
  0
LINE
  5
138A
330
36
100
AcDbEntity
  8
1
  6
DOT2
 62
     3
100
AcDbLine
 10
1058.935232
 20
-205.0
 30
0.0
 11
1095.949998
 21
-205.0
 31
0.0
  0
LWPOLYLINE
  5
138B
330
36
100
AcDbEntity
  8
1
  6
DOT2
 62
     3
100
AcDbPolyline
 90
        8
 70
     0
 43
0.0
 10
1094.949998
 20
-195.452
 10
1094.949998
 20
-205.0
 10
1094.441998
 20
-201.9519999999999
 10
1095.457998
 20
-201.9519999999999
 10
1094.949998
 20
-205.0
 10
1094.695998
 20
-201.9519999999999
 10
1095.203998
 20
-201.9519999999999
 10
1094.949998
 20
-205.0
  0
LINE
  5
1395
330
36
100
AcDbEntity
  8
1
  6
DOT2
 62
     3
100
AcDbLine
 10
1094.949998
 20
-208.8999999999999
 30
0.0
 11
1094.949998
 21
-205.0
 31
0.0
  0
LWPOLYLINE
  5
1396
330
36
100
AcDbEntity
  8
1
  6
DOT2
 62
     3
100
AcDbPolyline
 90
        8
 70
     0
 43
0.0
 10
1094.949998
 20
-213.948
 10
1094.949998
 20
-208.8999999999999
 10
1095.457998
 20
-211.948
 10
1094.441998
 20
-211.948
 10
1094.949998
 20
-208.8999999999999
 10
1095.203998
 20
-211.948
 10
1094.695998
 20
-211.948
 10
1094.949998
 20
-208.8999999999999
  0
TEXT
  5
13A0
330
36
100
AcDbEntity
  8
1
 62
     3
100
AcDbText
 10
1094.249598
 20
-199.5712
 30
0.0
 40
3.2
  1
39
 50
90.0
 41
0.825
100
AcDbText
  0
LINE
  5
13A1
330
36
100
AcDbEntity
  8
1
  6
DOT2
 62
     3
100
AcDbLine
 10
1070.999998
 20
-243.0
 30
0.0
 11
1095.949998
 21
-243.0
 31
0.0
  0
LINE
  5
13A2
330
36
100
AcDbEntity
  8
1
  6
DOT2
 62
     3
100
AcDbLine
 10
1058.949998
 20
-231.0
 30
0.0
 11
1095.949998
 21
-231.0
 31
0.0
  0
LWPOLYLINE
  5
13A3
330
36
100
AcDbEntity
  8
1
  6
DOT2
 62
     3
100
AcDbPolyline
 90
        8
 70
     0
 43
0.0
 10
1094.949998
 20
-248.048
 10
1094.949998
 20
-243.0
 10
1095.457998
 20
-246.048
 10
1094.441998
 20
-246.048
 10
1094.949998
 20
-243.0
 10
1095.203998
 20
-246.048
 10
1094.695998
 20
-246.048
 10
1094.949998
 20
-243.0
  0
LINE
  5
13AD
330
36
100
AcDbEntity
  8
1
  6
DOT2
 62
     3
100
AcDbLine
 10
1094.949998
 20
-243.0
 30
0.0
 11
1094.949998
 21
-231.0
 31
0.0
  0
LINE
  5
13AE
330
36
100
AcDbEntity
  8
1
  6
DOT2
 62
     3
100
AcDbLine
 10
1094.949998
 20
-227.984
 30
0.0
 11
1094.949998
 21
-231.0
 31
0.0
  0
LWPOLYLINE
  5
13AF
330
36
100
AcDbEntity
  8
1
  6
DOT2
 62
     3
100
AcDbPolyline
 90
       10
 70
     0
 43
0.0
 10
1095.203998
 20
-231.508
 10
1094.695998
 20
-231.508
 10
1094.441998
 20
-231.2539999999999
 10
1094.441998
 20
-230.746
 10
1094.695998
 20
-230.492
 10
1095.203998
 20
-230.492
 10
1095.457998
 20
-230.746
 10
1095.457998
 20
-231.2539999999999
 10
1095.203998
 20
-231.508
 10
1094.695998
 20
-230.492
  0
LINE
  5
13BB
330
36
100
AcDbEntity
  8
1
  6
DOT2
 62
     3
100
AcDbLine
 10
1095.203998
 20
-230.492
 30
0.0
 11
1094.695998
 21
-231.508
 31
0.0
  0
LINE
  5
13BC
330
36
100
AcDbEntity
  8
1
  6
DOT2
 62
     3
100
AcDbLine
 10
1094.441998
 20
-231.2539999999999
 30
0.0
 11
1095.457998
 21
-230.746
 31
0.0
  0
LINE
  5
13BD
330
36
100
AcDbEntity
  8
1
  6
DOT2
 62
     3
100
AcDbLine
 10
1095.457998
 20
-231.2539999999999
 30
0.0
 11
1094.441998
 21
-230.746
 31
0.0
  0
TEXT
  5
13BE
330
36
100
AcDbEntity
  8
1
 62
     3
100
AcDbText
 10
1094.249598
 20
-241.88512
 30
0.0
 40
3.2
  1
(120)
 50
90.0
 41
0.825
100
AcDbText
  0
LINE
  5
13BF
330
36
100
AcDbEntity
  8
1
  6
DOT2
 62
     3
100
AcDbLine
 10
1058.949998
 20
-226.9
 30
0.0
 11
1095.949998
 21
-226.9
 31
0.0
  0
LINE
  5
13C0
330
36
100
AcDbEntity
  8
1
  6
DOT2
 62
     3
100
AcDbLine
 10
1058.949998
 20
-231.0
 30
0.0
 11
1095.949998
 21
-231.0
 31
0.0
  0
LINE
  5
13C1
330
36
100
AcDbEntity
  8
1
  6
DOT2
 62
     3
100
AcDbLine
 10
1094.949998
 20
-234.016
 30
0.0
 11
1094.949998
 21
-231.0
 31
0.0
  0
LWPOLYLINE
  5
13C2
330
36
100
AcDbEntity
  8
1
  6
DOT2
 62
     3
100
AcDbPolyline
 90
       10
 70
     0
 43
0.0
 10
1094.695998
 20
-230.492
 10
1095.203998
 20
-230.492
 10
1095.457998
 20
-230.746
 10
1095.457998
 20
-231.2539999999999
 10
1095.203998
 20
-231.508
 10
1094.695998
 20
-231.508
 10
1094.441998
 20
-231.2539999999999
 10
1094.441998
 20
-230.746
 10
1094.695998
 20
-230.492
 10
1095.203998
 20
-231.508
  0
LINE
  5
13CE
330
36
100
AcDbEntity
  8
1
  6
DOT2
 62
     3
100
AcDbLine
 10
1094.695998
 20
-231.508
 30
0.0
 11
1095.203998
 21
-230.492
 31
0.0
  0
LINE
  5
13CF
330
36
100
AcDbEntity
  8
1
  6
DOT2
 62
     3
100
AcDbLine
 10
1095.457998
 20
-230.746
 30
0.0
 11
1094.441998
 21
-231.2539999999999
 31
0.0
  0
LINE
  5
13D0
330
36
100
AcDbEntity
  8
1
  6
DOT2
 62
     3
100
AcDbLine
 10
1094.441998
 20
-230.746
 30
0.0
 11
1095.457998
 21
-231.2539999999999
 31
0.0
  0
LINE
  5
13D1
330
36
100
AcDbEntity
  8
1
  6
DOT2
 62
     3
100
AcDbLine
 10
1094.949998
 20
-231.0
 30
0.0
 11
1094.949998
 21
-226.9
 31
0.0
  0
LWPOLYLINE
  5
13D2
330
36
100
AcDbEntity
  8
1
  6
DOT2
 62
     3
100
AcDbPolyline
 90
        8
 70
     0
 43
0.0
 10
1094.949998
 20
-221.852
 10
1094.949998
 20
-226.9
 10
1094.441998
 20
-223.852
 10
1095.457998
 20
-223.852
 10
1094.949998
 20
-226.9
 10
1094.695998
 20
-223.852
 10
1095.203998
 20
-223.852
 10
1094.949998
 20
-226.9
  0
TEXT
  5
13DC
330
36
100
AcDbEntity
  8
1
 62
     3
100
AcDbText
 10
1094.249598
 20
-230.57112
 30
0.0
 40
3.2
  1
41
 50
90.0
 41
0.825
100
AcDbText
  0
LINE
  5
13DD
330
36
100
AcDbEntity
  8
1
  6
DOT2
 62
     3
100
AcDbLine
 10
1058.949998
 20
-226.9
 30
0.0
 11
1095.949998
 21
-226.9
 31
0.0
  0
LINE
  5
13DE
330
36
100
AcDbEntity
  8
1
  6
DOT2
 62
     3
100
AcDbLine
 10
1058.949998
 20
-208.8999999999999
 30
0.0
 11
1095.949998
 21
-208.8999999999999
 31
0.0
  0
LWPOLYLINE
  5
13DF
330
36
100
AcDbEntity
  8
1
  6
DOT2
 62
     3
100
AcDbPolyline
 90
        8
 70
     0
 43
0.0
 10
1094.949998
 20
-217.9
 10
1094.949998
 20
-226.9
 10
1094.441998
 20
-223.852
 10
1095.457998
 20
-223.852
 10
1094.949998
 20
-226.9
 10
1094.695998
 20
-223.852
 10
1095.203998
 20
-223.852
 10
1094.949998
 20
-226.9
  0
LWPOLYLINE
  5
13E9
330
36
100
AcDbEntity
  8
1
  6
DOT2
 62
     3
100
AcDbPolyline
 90
        8
 70
     0
 43
0.0
 10
1094.949998
 20
-217.9
 10
1094.949998
 20
-208.8999999999999
 10
1095.457998
 20
-211.948
 10
1094.441998
 20
-211.948
 10
1094.949998
 20
-208.8999999999999
 10
1095.203998
 20
-211.948
 10
1094.695998
 20
-211.948
 10
1094.949998
 20
-208.8999999999999
  0
TEXT
  5
13F3
330
36
100
AcDbEntity
  8
1
 62
     3
100
AcDbText
 10
1094.249598
 20
-220.60912
 30
0.0
 40
3.2
  1
180
 50
90.0
 41
0.825
100
AcDbText
  0
LINE
  5
13F4
330
36
100
AcDbEntity
  8
1
  6
DOT2
 62
     3
100
AcDbLine
 10
1117.256803999999
 20
-229.109239
 30
0.0
 11
1117.256803999999
 21
-246.4999999999999
 31
0.0
  0
LINE
  5
13F5
330
36
100
AcDbEntity
  8
1
  6
DOT2
 62
     3
100
AcDbLine
 10
1108.596895
 20
-231.106217
 30
0.0
 11
1108.596895
 21
-246.4999999999999
 31
0.0
  0
LWPOLYLINE
  5
13F6
330
36
100
AcDbEntity
  8
1
  6
DOT2
 62
     3
100
AcDbPolyline
 90
        8
 70
     0
 43
0.0
 10
1103.548895
 20
-245.5
 10
1108.596895
 20
-245.5
 10
1105.548894999999
 20
-246.008
 10
1105.548894999999
 20
-244.992
 10
1108.596895
 20
-245.5
 10
1105.548894999999
 20
-245.7539999999999
 10
1105.548894999999
 20
-245.246
 10
1108.596895
 20
-245.5
  0
LINE
  5
1400
330
36
100
AcDbEntity
  8
1
  6
DOT2
 62
     3
100
AcDbLine
 10
1108.596895
 20
-245.5
 30
0.0
 11
1117.256803999999
 21
-245.5
 31
0.0
  0
LWPOLYLINE
  5
1401
330
36
100
AcDbEntity
  8
1
  6
DOT2
 62
     3
100
AcDbPolyline
 90
        8
 70
     0
 43
0.0
 10
1122.304803999999
 20
-245.5
 10
1117.256803999999
 20
-245.5
 10
1120.304803999999
 20
-244.992
 10
1120.304803999999
 20
-246.008
 10
1117.256803999999
 20
-245.5
 10
1120.304803999999
 20
-245.246
 10
1120.304803999999
 20
-245.7539999999999
 10
1117.256803999999
 20
-245.5
  0
TEXT
  5
140B
330
36
100
AcDbEntity
  8
1
 62
     3
100
AcDbText
 10
1109.337649
 20
-244.837952
 30
0.0
 40
3.024776999999999
  1
86.6
 41
0.825
100
AcDbText
  0
LINE
  5
140C
330
36
100
AcDbEntity
  8
1
  6
DOT2
 62
     3
100
AcDbLine
 10
1108.756894999999
 20
-235.4999999999999
 30
0.0
 11
1102.596895
 21
-235.4999999999999
 31
0.0
  0
LINE
  5
140D
330
36
100
AcDbEntity
  8
1
  6
DOT2
 62
     3
100
AcDbLine
 10
1110.088946
 20
-224.5
 30
0.0
 11
1102.596895
 21
-224.5
 31
0.0
  0
LWPOLYLINE
  5
140E
330
36
100
AcDbEntity
  8
1
  6
DOT2
 62
     3
100
AcDbPolyline
 90
        8
 70
     0
 43
0.0
 10
1103.596894999999
 20
-240.548
 10
1103.596894999999
 20
-235.4999999999999
 10
1104.104895
 20
-238.548
 10
1103.088894999999
 20
-238.548
 10
1103.596894999999
 20
-235.4999999999999
 10
1103.850895
 20
-238.548
 10
1103.342894999999
 20
-238.548
 10
1103.596894999999
 20
-235.4999999999999
  0
LINE
  5
1418
330
36
100
AcDbEntity
  8
1
  6
DOT2
 62
     3
100
AcDbLine
 10
1103.596894999999
 20
-235.4999999999999
 30
0.0
 11
1103.596894999999
 21
-224.5
 31
0.0
  0
LWPOLYLINE
  5
1419
330
36
100
AcDbEntity
  8
1
  6
DOT2
 62
     3
100
AcDbPolyline
 90
        8
 70
     0
 43
0.0
 10
1103.596894999999
 20
-219.452
 10
1103.596894999999
 20
-224.5
 10
1103.088894999999
 20
-221.4519999999999
 10
1104.104895
 20
-221.4519999999999
 10
1103.596894999999
 20
-224.5
 10
1103.342894999999
 20
-221.4519999999999
 10
1103.850895
 20
-221.4519999999999
 10
1103.596894999999
 20
-224.5
  0
TEXT
  5
1423
330
36
100
AcDbEntity
  8
1
 62
     3
100
AcDbText
 10
1102.934846999999
 20
-232.560776
 30
0.0
 40
3.024776999999999
  1
110
 50
90.0
 41
0.825
100
AcDbText
  0
LINE
  5
1424
330
36
100
AcDbEntity
  8
1
  6
DOT2
 62
     3
100
AcDbLine
 10
1135.999997999999
 20
-161.5
 30
0.0
 11
1135.999997999999
 21
-185.5
 31
0.0
  0
LINE
  5
1425
330
36
100
AcDbEntity
  8
1
  6
DOT2
 62
     3
100
AcDbLine
 10
1173.999997999999
 20
-164.5
 30
0.0
 11
1173.999997999999
 21
-185.5
 31
0.0
  0
LWPOLYLINE
  5
1426
330
36
100
AcDbEntity
  8
1
  6
DOT2
 62
     3
100
AcDbPolyline
 90
        8
 70
     0
 43
0.0
 10
1154.999998
 20
-184.4999999999999
 10
1135.999997999999
 20
-184.4999999999999
 10
1139.047998
 20
-183.992
 10
1139.047998
 20
-185.008
 10
1135.999997999999
 20
-184.4999999999999
 10
1139.047998
 20
-184.246
 10
1139.047998
 20
-184.754
 10
1135.999997999999
 20
-184.4999999999999
  0
LWPOLYLINE
  5
1430
330
36
100
AcDbEntity
  8
1
  6
DOT2
 62
     3
100
AcDbPolyline
 90
        8
 70
     0
 43
0.0
 10
1154.999998
 20
-184.4999999999999
 10
1173.999997999999
 20
-184.4999999999999
 10
1170.951998
 20
-185.008
 10
1170.951998
 20
-183.992
 10
1173.999997999999
 20
-184.4999999999999
 10
1170.951998
 20
-184.754
 10
1170.951998
 20
-184.246
 10
1173.999997999999
 20
-184.4999999999999
  0
TEXT
  5
143A
330
36
100
AcDbEntity
  8
1
 62
     3
100
AcDbText
 10
1152.290878
 20
-183.7996
 30
0.0
 40
3.2
  1
380
 41
0.825
100
AcDbText
  0
ENDSEC
  0
SECTION
  2
OBJECTS
  0
DICTIONARY
  5
143B
330
0
100
AcDbDictionary
  3
ACAD_GROUP
350
143C
  3
ACAD_LAYOUT
350
1447
  3
ACAD_MLINESTYLE
350
143D
  3
ACAD_PLOTSETTINGS
350
1448
  3
ACAD_PLOTSTYLENAME
350
1444
  3
ACDBHEADERROUNDTRIPXREC
350
144E
  0
DICTIONARY
  5
146E
330
36
100
AcDbDictionary
280
     1
  3
ACAD_LAYOUTSELFREF
360
146F
  0
DICTIONARY
  5
1470
330
37
100
AcDbDictionary
280
     1
  3
ACAD_LAYOUTSELFREF
360
1471
  0
DICTIONARY
  5
143C
102
{ACAD_REACTORS
330
143B
102
}
330
143B
100
AcDbDictionary
  0
DICTIONARY
  5
1447
102
{ACAD_REACTORS
330
143B
102
}
330
143B
100
AcDbDictionary
  0
DICTIONARY
  5
143D
102
{ACAD_REACTORS
330
143B
102
}
330
143B
100
AcDbDictionary
  3
STANDARD
350
143E
  0
DICTIONARY
  5
1448
102
{ACAD_REACTORS
330
143B
102
}
330
143B
100
AcDbDictionary
  0
ACDBDICTIONARYWDFLT
  5
1444
102
{ACAD_REACTORS
330
143B
102
}
330
143B
100
AcDbDictionary
281
     1
  3
Normal
350
1445
100
AcDbDictionaryWithDefault
340
1445
  0
DICTIONARY
  5
144E
102
{ACAD_REACTORS
330
143B
102
}
330
143B
100
AcDbDictionary
  3
CEPSNTYPE
350
1458
  3
FINGERPRINTGUID
350
1459
  3
HYPERLINKBASE
350
1451
  3
INSUNITS
350
1457
  3
LAYOUTDICT
350
1453
  3
LWETCUNION
350
1456
  3
PLOTSETDICT
350
1454
  3
PLOTSTYLNAMDICT
350
1455
  3
PSVPSCALE
350
145B
  3
PUCSBASE
350
145E
  3
PUCSORGBACK
350
1464
  3
PUCSORGBOTTOM
350
1460
  3
PUCSORGFRONT
350
1463
  3
PUCSORGLEFT
350
1461
  3
PUCSORGRIGHT
350
1462
  3
PUCSORGTOP
350
145F
  3
PUCSORTHOREF
350
145C
  3
PUCSORTHOVIEW
350
145D
  3
STYLESHEET
350
1452
  3
TSTACKALIGN
350
144F
  3
TSTACKSIZE
350
1450
  3
UCSBASE
350
1467
  3
UCSORGBACK
350
146D
  3
UCSORGBOTTOM
350
1469
  3
UCSORGFRONT
350
146C
  3
UCSORGLEFT
350
146A
  3
UCSORGRIGHT
350
146B
  3
UCSORGTOP
350
1468
  3
UCSORTHOREF
350
1465
  3
UCSORTHOVIEW
350
1466
  3
VERSIONGUID
350
145A
  0
XRECORD
  5
146F
102
{ACAD_REACTORS
330
146E
102
}
330
146E
100
AcDbXrecord
340
36
  0
XRECORD
  5
1471
102
{ACAD_REACTORS
330
1470
102
}
330
1470
100
AcDbXrecord
340
37
  0
MLINESTYLE
  5
143E
102
{ACAD_REACTORS
330
143D
102
}
330
143D
100
AcDbMlineStyle
  2
STANDARD
 70
     0
  3

 62
     0
 51
90.0
 52
90.0
 71
     2
 49
0.5
 62
   256
  6
BYLAYER
 49
-0.5
 62
   256
  6
BYLAYER
  0
ACDBPLACEHOLDER
  5
1445
102
{ACAD_REACTORS
330
1444
102
}
330
1444
100
AcDbPlaceHolder
280
     0
  0
XRECORD
  5
1458
102
{ACAD_REACTORS
330
144E
102
}
330
144E
100
AcDbXrecord
 90
        0
  0
XRECORD
  5
1459
102
{ACAD_REACTORS
330
144E
102
}
330
144E
100
AcDbXrecord
  1
{D8618AEE-EAA3-43A8-A7F2-79D939F07B6F}
  0
XRECORD
  5
1451
102
{ACAD_REACTORS
330
144E
102
}
330
144E
100
AcDbXrecord
  1

  0
XRECORD
  5
1457
102
{ACAD_REACTORS
330
144E
102
}
330
144E
100
AcDbXrecord
 90
        0
  0
XRECORD
  5
1453
102
{ACAD_REACTORS
330
144E
102
}
330
144E
100
AcDbXrecord
340
1447
  0
XRECORD
  5
1456
102
{ACAD_REACTORS
330
144E
102
}
330
144E
100
AcDbXrecord
 90
    10781
  0
XRECORD
  5
1454
102
{ACAD_REACTORS
330
144E
102
}
330
144E
100
AcDbXrecord
340
1448
  0
XRECORD
  5
1455
102
{ACAD_REACTORS
330
144E
102
}
330
144E
100
AcDbXrecord
340
1444
  0
XRECORD
  5
145B
102
{ACAD_REACTORS
330
144E
102
}
330
144E
100
AcDbXrecord
 40
0.0
  0
XRECORD
  5
145E
102
{ACAD_REACTORS
330
144E
102
}
330
144E
100
AcDbXrecord
340
0
  0
XRECORD
  5
1464
102
{ACAD_REACTORS
330
144E
102
}
330
144E
100
AcDbXrecord
 10
0.0
 20
0.0
 30
0.0
  0
XRECORD
  5
1460
102
{ACAD_REACTORS
330
144E
102
}
330
144E
100
AcDbXrecord
 10
0.0
 20
0.0
 30
0.0
  0
XRECORD
  5
1463
102
{ACAD_REACTORS
330
144E
102
}
330
144E
100
AcDbXrecord
 10
0.0
 20
0.0
 30
0.0
  0
XRECORD
  5
1461
102
{ACAD_REACTORS
330
144E
102
}
330
144E
100
AcDbXrecord
 10
0.0
 20
0.0
 30
0.0
  0
XRECORD
  5
1462
102
{ACAD_REACTORS
330
144E
102
}
330
144E
100
AcDbXrecord
 10
0.0
 20
0.0
 30
0.0
  0
XRECORD
  5
145F
102
{ACAD_REACTORS
330
144E
102
}
330
144E
100
AcDbXrecord
 10
0.0
 20
0.0
 30
0.0
  0
XRECORD
  5
145C
102
{ACAD_REACTORS
330
144E
102
}
330
144E
100
AcDbXrecord
340
0
  0
XRECORD
  5
145D
102
{ACAD_REACTORS
330
144E
102
}
330
144E
100
AcDbXrecord
 70
     0
  0
XRECORD
  5
1452
102
{ACAD_REACTORS
330
144E
102
}
330
144E
100
AcDbXrecord
  1

  0
XRECORD
  5
144F
102
{ACAD_REACTORS
330
144E
102
}
330
144E
100
AcDbXrecord
 90
        1
  0
XRECORD
  5
1450
102
{ACAD_REACTORS
330
144E
102
}
330
144E
100
AcDbXrecord
 90
       70
  0
XRECORD
  5
1467
102
{ACAD_REACTORS
330
144E
102
}
330
144E
100
AcDbXrecord
340
0
  0
XRECORD
  5
146D
102
{ACAD_REACTORS
330
144E
102
}
330
144E
100
AcDbXrecord
 10
0.0
 20
0.0
 30
0.0
  0
XRECORD
  5
1469
102
{ACAD_REACTORS
330
144E
102
}
330
144E
100
AcDbXrecord
 10
0.0
 20
0.0
 30
0.0
  0
XRECORD
  5
146C
102
{ACAD_REACTORS
330
144E
102
}
330
144E
100
AcDbXrecord
 10
0.0
 20
0.0
 30
0.0
  0
XRECORD
  5
146A
102
{ACAD_REACTORS
330
144E
102
}
330
144E
100
AcDbXrecord
 10
0.0
 20
0.0
 30
0.0
  0
XRECORD
  5
146B
102
{ACAD_REACTORS
330
144E
102
}
330
144E
100
AcDbXrecord
 10
0.0
 20
0.0
 30
0.0
  0
XRECORD
  5
1468
102
{ACAD_REACTORS
330
144E
102
}
330
144E
100
AcDbXrecord
 10
0.0
 20
0.0
 30
0.0
  0
XRECORD
  5
1465
102
{ACAD_REACTORS
330
144E
102
}
330
144E
100
AcDbXrecord
340
0
  0
XRECORD
  5
1466
102
{ACAD_REACTORS
330
144E
102
}
330
144E
100
AcDbXrecord
 70
     0
  0
XRECORD
  5
145A
102
{ACAD_REACTORS
330
144E
102
}
330
144E
100
AcDbXrecord
  1
{557DCFD7-34FA-4FEA-841F-99BA6D46CC6A}
  0
ENDSEC
  0
EOF
